Oops, an error
Loading. Please wait.

Pa Pa Pa Tab

2 views 1 this week
no commentswrite comment
1 2 3 4 5
3 more votes to show rating
add to favorites
launch autoscroll
font size
0
reset
how to read this tab
guitar tuner
×
Best way to learn
"Pa Pa Pa"
Autoscroll
slow
fast
+/-
esc
set tempo
stop
INTRO:
E|-----------------------------------|
B|-----------------------------------|
G|-----------------------------------|
D|-5-5-555-5555-55--5-5-555-5555-5---|
A|-5-5-555-5555-55--5-5-555-5555-5---|
E|-3-3-333-3333-33--3-3-333-3333-3---|

E|-----------------------------------------------------------|
B|-----------------------------------------------------------|
G|-12-12-12-12-12-12-12-14-16-----------------------------14-| X2
D|-----------------------------14-14-14-16-14-12-12-12-14----|
A|-----------------------------------------------------------|
E|-----------------------------------------------------------|

G5                             C5
Me encantan las canciones de amor y
              D5               G5
aquellas que piden un mundo mejor vivo con el miedo al dedo
    C5         D5
que alguna vez apretara el botón

E|-----------------------------------------------------------|
B|-----------------------------------------------------------|
G|-12-12-12-12-12-12-12-14-16-----------------------------14-|
D|-----------------------------14-14-14-16-14-12-12-12-14----|
A|-----------------------------------------------------------|
E|-----------------------------------------------------------|

G5                               C5
Creo en la libertad y en mi corazón
                  D5             G5
hay un sitio esperando por una flor la escena me pone nervioso
           C5                 D5
aunque el show debe continuar yo soy un profesional


C5            D5   C5            D5
Entrego diversion, palabras de amor, mi coro dice


CORO:
G5    C5    D5
PA PA PA ... cantemos al amor
G5    C5    D5                G5
PA PA PA ... cantemos a la paz


G5
Mi destino son los aviones
   C5              D5            G5
y los hoteles que no me dejan reir, las penas de amor me sumergen
    C5         D5
en depresiones llenas de sensibilidad


C5            D5   C5            D5
Entrego diversion, palabras de amor, mi coro dice


CORO:
G5    C5    D5
PA PA PA ... cantemos al amor
G5    C5    D5
PA PA PA ... cantemos a la paz
G5    C5    D#5       D5       G5 (esta parte va acompañada de un riff
PA PA PA ... cantemos al amor      explciado en la parte de abajo)

G5    C5    D5
PA PA PA ... cantemos al amor
G5    C5    D5
PA PA PA ... cantemos a la paz
G5    C5    D#5       D5       G5
PA PA PA ... cantemos al amor

E|-----------------------------------|
B|-----------------------------------|
G|-----------------------------------|
D|-5-5-555-5555-55--5-5-555-5555-5---|
A|-5-5-555-5555-55--5-5-555-5555-5---|
E|-3-3-333-3333-33--3-3-333-3333-3---|


ACORDES:
E|---x----x----x----x---|
B|---x----x----x----x---|
G|---x----5----7----8---|
D|---5----5----7----8---|
A|---5----3----5----6---|
E|---3----x----x----x---|
     G5   C5   D5  D#5

RIFF:
E|------------------------------------------------------------------|
B|------------------------------------------------------------------|
G|-------12-15-12--------12-15-12--------11-14-11-------11-14-11----|
D|-13-13-----------13-13-----------12-12----------12-12-----------5-|
A|----------------------------------------------------------------5-|
E|----------------------------------------------------------------3-|
   D#5                             D5
Suggest correction
Give kudos to tab author, rate the tab!
1 2 3 4 5
comments
print report bad tab
guest
You may want to rate the tab now too:
select rating
Wanna post a correction for this tab? Suggest correction