Oops, an error
Loading. Please wait.

Por Siempre Bass Tab

31 views 1 this week
no commentswrite comment
1 2 3 4 5
3 more votes to show rating
add to favorites
launch autoscroll
font size
0
reset
guitar tuner
Autoscroll
slow
fast
+/-
esc
set tempo
stop
Help us to improve Ultimate-Guitar.com Take our survey!
×
INTRO: "ohhhhhhh ohhh..."
G|------------------------------------------|
D|---------------------------------------x2-|
A|----------55555555-77777777-3333-5555-----|
E|-33333333---------------------------------|

VRESO: "Cuando nos conocimos y esa primera vez..."
G|------------------------------------------|
D|--------------------------------------x3--|
A|----------55555555-77777777-3333-5555-----|
E|-33333333---------------------------------|

"La casa donde vivo ahora"
G|------------------------------------|
D|------------------------------------|
A|----------55555555-33333333-5555555-|
E|-33333333---------------------------|

PRE-CORO:: "Cosas que no se borraran..."
G|------------------------------------------|
D|------------------------------------------|
A|-33333333----------555555555-7777-7-5-3-5-|
E|----------33333333------------------------|

"Quiero que lo nuestro perdure por siempre"
G|-------------------------------------|
D|-------------------------------------|
A|-33333333----------5555555555555555--|
E|----------33333333-------------------|

CORO:" Por siempre, por siempre"
G|--------------------------------------------------------|
D|--------------------------------------------------------|
A|----------55555555-77777777-3333-5555----------55555555-|
E|-33333333-----------------------------33333333----------|

"Momentos que quedan por seimpre"
G|---------------------------------------|
D|---------------------------------------|
A|-3333-5555----------3333-5555----------|
E|-----------33333333-----------33333333-|

---BATERIA---

VRESO: "El dia que formamos una banda de rock..."
G|--------------------------------------|
D|--------------------------------------|
A|----------55555555-77777777-3333-5555-|
E|-33333333-----------------------------|

"Aunque eramos muy malos..."
G|------------------------------------|
D|------------------------------------|
A|----------55555555-33333333-5555555-|
E|-33333333---------------------------|

"Cunado decidi no regalarle mi vida..."
G|-----------------------------|
D|-----------------------------|
A|--------5-----7-----7-3---55-|
E|-3-----3---------------------|

"Ahora me la paso..."
G|------------------------------------|
D|------------------------------------|
A|----------55555555-33333333-5555555-|
E|-33333333---------------------------|

---PRE-CORO---

---CORO-------

Piano (opcional)
G|----------------5-3-2-3--------------|
D|---------0-0-0-----------------0-0-0-|
A|-3-3-------------------3-3-----------|
E|-----3-3-------------------3-3-------|

FINAL:"Por siempre, por siempre "
G|--------------------------------------------------------|
D|--------------------------------------------------------|
A|----------77777777-99999999-5555-7777----------77777777-|
E|-55555555-----------------------------55555555----------|

"Momentos que quedan por seimpre, personas que quedan..."
G|----------------------------------------|
D|------------------------------------x2--|
A|-5555-7777----------5555-7777-----------|
E|-----------55555555-----------55555555--|

FINAL: "ohhhhhhhhhh ohhhh"
G|------------------------------------------|---|
D|--------------------------------------x2--|---|
A|----------77777777-99999999-5555-7777-----|---|
E|-55555555---------------------------------|-5-|
Suggest correction
Give kudos to tab author, rate the tab!
1 2 3 4 5
comments
print report bad tab
guest
You may want to rate the tab now too:
select rating
Wanna post a correction for this tab? Suggest correction