Oops, an error
Loading. Please wait.

Por Siempre tab

35 views 1 this week
no commentswrite comment
1 2 3 4 5
3 more votes to show rating
add to favorites
×
Save as Personal and add changes to this tab that will be seen only by you. Learn more ›
×
You can save this tab as Personal to edit and correct it or add notes. All changes will be seen only by you. Learn more »
launch autoscroll
font size
0
reset
how to read this tab
guitar tuner
edit
Autoscroll
slow
fast
+/-
esc
set tempo
stop
INTRO:
  uuoooo      ho  ooo  uuooo    ho   ooo
 |------------------------------------------|
 |------------------------------------------|
 |-----------7-7-7-7-7--5-5-5-5-5-9-9-9-9-9-|
 |-5-5-5-5-5-7-7-7-7-7--5-5-5-5-5-9-9-9-9-9-|
 |-5-5-5-5-5-5-5-5-5-5--3-3-3-3-3-7-7-7-7-7-|
 |-3-3-3-3-3--------------------------------|
   . . . . . . . . . . . . . . . . . . . . .
   pal  mute


  uuoooo      ho  ooo  uuooo    ho   ooo
 |------------------------------------------|
 |------------------------------------------|
 |-----------7-7-7-7-7--5-5-5-5-5-9-9-9-9-9-|
 |-5-5-5-5-5-7-7-7-7-7--5-5-5-5-5-9-9-9-9-9-|
 |-5-5-5-5-5-5-5-5-5-5--3-3-3-3-3-7-7-7-7-7-|
 |-3-3-3-3-3--------------------------------|
 | ..........................................(pal mute)
 |
 |
 |---0-----0-------0-----0-------|
 |-0---0-----0--0----0-----0--0--|
 |-------------------------------|
 |-2-----2------2------2------2--|
 |-------------------------------|
 |-------------------------------|


G5                     D5
Cuando nos conocimos y esa primera vez
E5                     C5            A5
Cuando nos acostamos y el atraso después

G5                         D5
Tus dientes con frenillos y tu aliento
C5                        E5
Que recuerdo por siempre, por siempre

G5                           D5
La tarde que me fui de casa para empezar
E5                      C5       A5
Una vida distinta solo, sin mi mama

G5                 D5
La casa donde vivo ahora
 C5                      E5
Con mis amigos la quiero, para siempre


RIFF-1-
PAL MUTE
..........................................
G5            D5           C5           E5
Cosas que no se borrarán de mi mente(juro nose borraran)
..            ..           ..           ..
G5            D5           C5           E5
Quiero que lo nuestro perdure por siempre


CORO

G5            D5
Por siempre, por siempre
E5               C5   A5
Momentos que se quedarán
G5             D5
Por siempre, por siempre
C5                  E5
Momentos que quedan por siempre
D5          C5         E5
Momentos que quedan por siempre


G5                      D5
El día que formamos una banda de rock,

 |---0-------------0-----|
 |-0---0--------------0--|
 |-----------------------|
 |-2--------------2------| XTO VA AL MISMO TIEPO
 |-----------------------|
 |-----------------------|

E5                         C5         A5
El día que tocamos nuestra primer canción
 |---0-------------0-----|
 |-0---0--------------0--|
 |-----------------------|
 |-2--------------2------| XTO VA AL MISMO TIEPO
 |-----------------------|
 |-----------------------|


G5                            D5
Aunque éramos muy malos hoy seguimos ensayando
 |---0-------------0-----|
 |-0---0--------------0--|
 |-----------------------|
 |-2--------------2------| XTO VA AL MISMO TIEPO
 |-----------------------|
 |-----------------------|

C5             E5
por siempre, para siempre

 |---0-------------0-----|
 |-0---0--------------0--|
 |-----------------------|
 |-2--------------2------| XTO VA AL MISMO TIEPO
 |-----------------------|
 |-----------------------|


RIFF-2-
G5                      D5
Cuando decidí no regalarle mi vida
E5                      C5         A5-A5
A una empresa aburrida y a una fría oficina

ESTA PARTE VA CON PALMUTE...
..                      ..               ..
G5                      D5               C5
Ahora me la paso escribiendo y cantando canciones
..
E5
Para siempre!!


RIFF-1-
PAL MUTE
..........................................
G5            D5           C5           E5
Cosas que no se borrarán de mi mente(juro nose borraran)
..            ..           ..           ..
G5            D5           C5           E5
Quiero que lo nuestro perdure por siempre


CORO

G5            D5
Por siempre, por siempre
E5               C5   A5
Momentos que se quedarán
G5             D5
Por siempre, por siempre
C5                   E5           E5  C5  D5
Momentos que quedan por siempre


RIFF-1-
PAL MUTE
..........................................
G5            D5           C5           E5
Cosas que no se borrarán de mi mente
..            ..           ..           ..
G5            D5           C5           E5
Quiero que lo nuestro perdure por siempre


G5            D5
Por siempre, por siempre
E5               C5   A5
Momentos que se quedarán
G5             D5
Por siempre, por siempre
C5                     E5
Momentos que quedan por siempre(por siempre)
D5              C5                 E5
personas q quedan por siempre ( por siempre)
D5              C5                 E5
olores que quedan por siempre( por siempre)
D5          C5                E5
canciones    que quedan por siempre


INTRO

 |---0-----0-------0-----0-----|---|
 |-0---0-----0--0----0-----0---|-0-|
 |-----------------------------|---|
 |-2-----2------2------2-------|-2-|
 |-----------------------------|---|
 |--------(X4VECES)------------|---|


ACORDES

D5   G5   A5   E5  C5
X    X    X    X   X
X    X    X    X   X
7    X    X    9   5
7    5    7    9   5
5    5    7    7   3
X    3    5    X   X

Mauricio Parra (ruffuz666@
neo-hammer@

            
            
Suggest correction
Creating personal tab
Creating personal tab
You can edit any tab online and save it as your Personal.

You can edit, replace or remove any tab part or add personal notes – all changes will be seen only by you.

Personal tabs can be accessed anytime from any device, even offline.
Learn more »
Give kudos to tab author, rate the tab!
1 2 3 4 5
comments
print report bad tab
guest
Wanna post a correction for this tab? Suggest correction