Oops, an error
Loading. Please wait.

Puñalada Tab

23 views 1 this week
no commentswrite comment
1 2 3 4 5
3 more votes to show rating
add to favorites
launch autoscroll
font size
0
reset
how to read this tab
guitar tuner
×
Best way to learn
"Puñalada"
Autoscroll
slow
fast
+/-
esc
set tempo
stop
A5                      D5
una puñalada fue lo que ella me dio
A5                 D5           E5
esa mañana cuando le entregue me corazón(bis)

E|--------------------------------------------------------------|
B|-2-1----2-1----2-1----2-1----2-1-----2-1----2-1----2-1--------|
G|----3-1----3-1----3-1----3-1-----3-1----3-1----3-1----3-1--x2-|
D|--------------------------------------------------------------|
A|--------------------------------------------------------------|
E|--------------------------------------------------------------|

A5                          D5
en medio de la calle muerto y sin poder hablar
A5                     G5        D5
en medio de la burla de toda la sociedad
A5                              D5
no entiendo que paso no entiendo por que me mato
A5                  G5         D5
no se yo que le hice simplemente me mato


CORO:
A5                  D5
una puñalada al corazón ohhhhhhhhhhh
A5                  D5    E5
una puñalada al corazón ohhhhhhhhhhh
A5                  D5
una puñalada al corazón ohhhhhhhhhhh
A5                  D5    E5
una puñalada al corazón ohhhhhhhhhhh

E|---------------------------------------------------------------|
B|-2-1-----2-1----2-1----2-1----2-1-----2-1----2-1-2-4-2-1-------|
G|----3-1-----3-1----3-1----3-1-----3-1----3-1------------3-1-x2-|
D|---------------------------------------------------------------|
A|---------------------------------------------------------------|
E|---------------------------------------------------------------|

A5 ~                       D5 ~
Te fuiste al extranjero para nunca regresar
A5 ~                      G5 ~       D5 D5 D5
te fuiste al extranjero y afilaste tu puñal
A5 ~                             D5 ~
no entiendo que paso no entiendo por que me mato
A5 ~                  G5 ~         D5
no se yo que le hice simplemente me mato

CORO:
A5                  D5
una puñalada al corazón ohhhhhhhhhhh
A5                  D5    E5
una puñalada al corazón ohhhhhhhhhhh
A5                  D5
una puñalada al corazón ohhhhhhhhhhh
A5                  D5    E5         D5     E5
una puñalada al corazón ohhhhhhhhhhh me mataste

una puñalada al corazón ohhhhhhhhhhh

unq puñalada al corazón ohhhhhhhhhhh(bis)


LISTO PARCEROS HAY ESTA OTRA MAS DE ESTA BUENA BANDA NACIONAL
COLOMBIANA HIJUEPUTA¡¡¡¡
Suggest correction
Give kudos to tab author, rate the tab!
1 2 3 4 5
comments
print report bad tab
guest
You may want to rate the tab now too:
select rating
Wanna post a correction for this tab? Suggest correction