Oops, an error
Loading. Please wait.

Que Se Yo Bass

25 views 3 this week
no commentswrite comment
1 2 3 4 5
3 more votes to show rating
add to favorites
launch autoscroll
font size
0
reset
guitar tuner
×
Best way to learn
"Que Se Yo"
Autoscroll
slow
fast
+/-
esc
set tempo
stop
INTRO: con la batería
G|---------------------?--|
D|------------------------|
A|------------------------|
E|-0/7-77777777-77777777--|

INTRO RIFF 2:
G|-------------------------------------|
D|-------------------------------------|
A|------------6-66-66-6---77-66-44-22--| X2
E|-7-77-77-7-----------------------?---|

VERSO I:?Conocerte fue mi maldición...?
G|-------------------------------------------|
D|-------------------------------------------|
A|-22222222-------------------2-2-22-2-22-2--| X2
E|----------00000000-22222222----------------|

PRE-VERSO:?Pero tu lengua se volvio puro metal...?
G|--------------------|
D|--------------------|
A|-----------22222222-| x2
E|-0000?2222----------|

G|--------------------------------------------|
D|--------------------------------------------|
A|-----------22222-11111-----------2222-2222--|
E|-0000-2222-------------0000-2222------------|

CORO:?Y que se yo de la vida...?
G|--------------------------------------------------------|
D|--------------------------------------------------------|
A|-------------------------------------2--22--------------|
E|-00000000-00000000-22222222-22222222-------5-55-?44-44--|

G|--------------------------------------------------------|
D|--------------------------------------------------------|
A|-----------44444444-22222222----------------------------|
E|-444444444-------------------22222222-2222222-00000000--|

G|----------------------------|
D|----------------------------|
A|---------2-22-2-2-22222222--|
E|-2222222--------------------|

SOLO:
G|----------------------------------------------------|
D|----------------------------------------------------| X2
A|-22222222-22222222----------------------------------|
E|-------------------00000000-0000000-22-22-22-2-2-22-|

VERSO 2:?Con nostalgia recuerdo aquel dia...?
G|-------------------------------------------------|
D|-------------------------------------------------|
A|--------------------------------2----------------|
E|-4---4--4-2---2--2-0---0--0-2-------4---4--4-2---|

?Perdóname rock and role yo te olvide¡¡¡?
G|-----------------------------------|
D|-----------------------------------|
A|-----------22222222-22222222-------|
E|-2----0----------------------------|

CORO:?Y que se yo de la vida...?
G|--------------------------------------------------------|
D|--------------------------------------------------------|
A|-------------------------------------2--22--------------|
E|-00000000-00000000-22222222-22222222-------5-55-?44-44--|

G|--------------------------------------------------------|
D|--------------------------------------------------------|
A|-----------44444444-22222222----------------------------|
E|-444444444-------------------22222222-2222222-00000000--|

G|----------------------------|
D|----------------------------|
A|---------2-22-2-2-22222222--|
E|-2222222--------------------|

CORO FINAL:?Pero yo seque algún día...?
G|--------------------------------------------------------|
D|--------------------------------------------------------|
A|-------------------------------------2--22--------------|
E|-00000000-00000000-22222222-22222222-------5-55-?44-44--|

G|--------------------------------------------------------|
D|--------------------------------------------------------|
A|-----------44444444-22222222----------------------------|
E|-444444444-------------------22222222-2222222-00000000--|

G|----------------------------|
D|----------------------------|
A|---------2-22-2-2-22222222--|
E|-2222222--------------------|

INTRO RIFF 2:
G|------------------------------------|
D|------------------------------------|
A|------------6-66-66-6---77-66-44-22-|
E|-7-77-77-7-----------------------?--|

G|-------------------------------------|
D|-------------------------------------|
A|------------6-66-66-6---7?-6-?4?-2---|
E|-7-77-77-7-----------------------?---|


ESTA ES LA MEJOR CANCION QUE TIENE TRES DE CORAZON Y ES MUY
FACIL, SOLO BASTA CON RECORDAR LAS SEGUIDILLAS DE LAS NOTAS
Suggest correction
Give kudos to tab author, rate the tab!
1 2 3 4 5
comments
print report bad tab
guest
You may want to rate the tab now too:
select rating
Wanna post a correction for this tab? Suggest correction