Oops, an error
Loading. Please wait.

Sin Solución Chords

13 views 1 this week
no commentswrite comment
1 2 3 4 5
3 more votes to show rating
add to favorites
launch autoscroll
font size
0
reset
transpose
0
reset
simplify chords
display chords
guitar tuner
×
Best way to learn
"Sin Solución"
Autoscroll
slow
fast
+/-
esc
set tempo
stop
intro:
Ha pasado tanto tiempo
he vivido cosas increibles
he esperado tanto tiempo
para estar allí de nuevo en el principio

   E     B5      G#5      A5    B5-B5-B5
e|---------------------------------------|
B|---------------------------------------|
G|---------------------------------------|
D|---------------------------------------|
A|---------------------------------------|
E|-0-(...)-7-(...)-4-(...)-5(...)-7-7-7--|

    A5           E5 - Eb5 - E5
que no te pase a vos
         A5          E5 - Eb5 - E5
Lo que a mi ya me pasó
          A5            E5 - Eb5 - E5
me entregué a la cerveza
      F#m           A5 - B5
por culpa de un desamor

E                   B5
  cuando tuve la noticia
         G#5
de que estabas bien
             A5    - E5-E5
y tenías una hija

E                    B5
  no supe donde esconderme
        G#5
me encerré en un bar
                A5    - A5-A5 - B5-B5
y bebí hasta la muerte


    A5           E5 - Eb5 - E5
que no te pase a vos
         A5          E5 - Eb5 - E5
Lo que a mi ya me pasó
         A5          E5 - Eb5 - E5
Me escupieron en la cara
       F#m
y sinembargo aquí estoy...

     E5         C#5       A5        F#m
  tratando de recuperarme en el alcohol
  A5   F#m      E
  buscado solución
     E5    C#5       B    A5 - B5
  tratando de recuperarme

     E5         C#5       A5        F#m
  tratando de recuperarme en el alcohol
  A5   F#m      E
  buscado solución
     E5    C#5       B
  tratando de recuperarme

   A5             E
perdido en el alcohol
B5         A5   B5-B5-B5
  sin solución...


E                       B5
  atrás quedaron tantos días
      G#5
sin comer y
                     A5    - E5-E5
muchas noches sin dormirlas

E                     B5
  ahora ya tengo otra novia
                G#5
me quiere y me apoya
              A5        B5
y hoy estamos juntos apesar
          G#5            C#5-B5-A5 - B5
de que yo sigo, en el ALCOHOOOOOOOOOOOOL


           -*/XXX PUNTEO XXX*-

e|---4--2-2--0-0---0-2-4~---4h5-4-2~-h4p2-|
B|-0-------------4------------------------|
G|----------------------------------------|
D|----------------------------------------|
A|----------------------------------------|
E|----------------------------------------

e|-2-2--4-5-4---4h5p4--4~--5-4-0-5-4-0-5-4---7-5-0-7-5-0-7-5-5~~~-|
B|-------------------7--------------------------------------------|
G|----------------------------------------------------------------|
D|----------------------------------------------------------------|
A|----------------------------------------------------------------|
E|----------------------------------------------------------------|

      A5           E5 - Eb5 - E5
y que no te pase a vos
         A5          E5 - Eb5 - E5
lo que a mi ya me pasó
          A5            E5 - Eb5 - E5
me entregué a la cerveza
       B5          A5 - B5
y sin embargo aquí estoy...


     E5         C#5       A5        F#m
  tratando de recuperarme en el alcohol
  A5   F#m      E
  buscado solución
     E5    C#5       B    A5 - B5
  tratando de recuperarme

     E5         C#5       A5        F#m
  tratando de recuperarme en el alcohol
  A5   F#m      E
  buscado solución
     E5    C#5       B
  tratando de recuperarme

  A5 - B5 -  E5
  sin soluciooón

(de fondo se escucha este punteito)
e|-5-4-0-5-4-0-7-0-5-4-0-5-4-0-7-0-5-4-0-5-4-0-5-7-12~~~-|
B|-------------------------------------------------------|
G|-------------------------------------------------------|
D|-------------------------------------------------------|
A|-------------------------------------------------------|
E|-------------------------------------------------------|

e|-5h9~-9-7-5-7-5-4----|
B|------------------5~-|
G|---------------------|
D|---------------------|
A|---------------------|
E|---------------------|


(TERMINA EL CORO CON):
E5            C#5       A5        F#m
tratando de recuperarme en el alcohol
  A5   F#m      E5
  buscado solución

E5 -     C#5 -    B -
tratando de recuperarme
   A5            E -
perdido en el alcohol
B5 -        A5 A#5 B5 A5 - E~
  sin solucio--o---o--on

Listo parceros(as) pa los ke tanto me la pidieron ahista
eso es todo dudas al mail.
Apoyemos el rock local, si necesitan mas tabs de este
u otros grupos locales, escribanme al mail.
Suggest correction
Give kudos to tab author, rate the tab!
1 2 3 4 5
comments
print report bad tab
guest
You may want to rate the tab now too:
select rating
Wanna post a correction for this tab? Suggest correction