Oops, an error
Loading. Please wait.

Sin Solución Bass Tab

13 views 1 this week
no commentswrite comment
1 2 3 4 5
3 more votes to show rating
add to favorites
launch autoscroll
font size
0
reset
guitar tuner
×
Best way to learn
"Sin Solución"
Autoscroll
slow
fast
+/-
esc
set tempo
stop
INTRO: "Ha pasado tanto tiempo..."
G|------------------------------------------|
D|------------------------------------------| X2
A|------------------------------------------|
E|-00000000-77777777-44444444-5555555-7-7---|

PRE-CORO: "Que no te pase a vos..."
G|-----------------------|--------------------|
D|-----------------X3----|--------------------|
A|-----------------------|--------------------|
E|-55555555--01111-01111-|-22222222-5555-7777-|

VERSO: "cuando tuve la noticia..."
G|---------------------------------------------------------------------|
D|---------------------------------------------------------------------|
A|---------2222222---------------77--------2222222------------------22-|
E|-0000000---------4444444-555555---0000000--------4444444-555555-55---|

PRE-CORO: "Que no te pase a vos..."
G|-----------------------|--------------------|
D|-----------------X3----|--------------------|
A|-----------------------|--------------------|
E|-55555555--01111-01111-|-22222222-222222222-|

CORO: "Tratando de recuperarme en el alcohol buscando sololucon"
G|--------------------------------------------------------------|
D|--------------------------------------------------------------|
A|----------4444---------------------------444444444-2222----22-|
E|-00000000------5-2-5-2-00000000-00000000----------------55----|

"Tratando de recuperarme en el alcohol buscando solucion"
G|--------------------------------------------------------------|
D|--------------------------------------------------------------|
A|----------4444---------------------------444444444-2222222222-|
E|-00000000------5-2-5-2-00000000-00000000----------------------|

"Perdido en el alcohol sin solucion"
G|-------------------------------------------|
D|-------------------------------------------|
A|-------------------22222222----------------|
E|-55555555-00000000----------55555555-7-7---|

VERSO: "atras quedaron tantos dias..."
G|--------------------------------------------------------------|
D|--------------------------------------------------------------|
A|---------2222222---------------77--------2222222--------------|
E|-0000000---------4444444-555555---0000000--------444444-55555-|

"Y hoy estamos juntos a pesar que yo sigo en el alcohol..."
G|-----------------------------------------------------|
D|-----------------------------------------------------|
A|----------22222222---------------44444-2222------2~~-|
E|-55555555-----------4-4-4-4-4444------------5555-----|

SOLO:
G|-----------------------------------------|
D|-----------------------------------------|
A|-222222222-------------------------------|
E|-----------555555555-333333333-55555555--|

PRE-CORO: "Y Que no te pase a vos..."

CORO: "Tratando de recuperarme en el alcohol buscando sololucon"

"Tratando de recuperarme sin solucion"
G|----------------------------------------------------------------|
D|----------------------------------------------------------------|
A|-------------------22222222-------------------------------------|
E|-55555555-00000000----------55555555-777777777-00000000-0000000-|

CORO FINAL: "Tratando de recuperarme..."
G|-------------------------------|
D|-------------------------------|
A|----------444444444-2222222222-|
E|-00000000----------------------|

" perdido en el alcohol sin solucion"
G|-----------------------------|
D|-----------------------------|
A|-----------------------------|
E|-55555555-666666666-7-5-0----|
Suggest correction
Give kudos to tab author, rate the tab!
1 2 3 4 5
comments
print report bad tab
guest
You may want to rate the tab now too:
select rating
Wanna post a correction for this tab? Suggest correction