Oops, an error
Loading. Please wait.

Solo Quiero Estar Junto A Tí Tab

version 1
version 1

Whole song

32 views 1 this week
no commentswrite comment
1 2 3 4 5
3 more votes to show rating
add to favorites
launch autoscroll
font size
0
reset
how to read this tab
guitar tuner
×
Best way to learn
"Solo Quiero Estar Junto A Tí"
Autoscroll
slow
fast
+/-
esc
set tempo
stop
A5      G#5      F#5      Em    D5          C#5      E5
Ando buscando algo para mi.....solo me quiero divertir.....
A5      G#5      F#5      Em         D5            E5           A5
miles de partes no se a dónde ir.... solo quiero estar junto a tí...


|------------------------------------------------------|
|------------------------------------------------------|
|-2---2-4---4--6-7-6-4-222~1/2-777-66-7-6-4~-2-1-------|
|---2-----2--------------------------------------------|
|------------------------------------------------------|
|------------------------------------------------------|

|------------------------------------------------------|
|------------------------------------------------------|
|-2---2-4---4--6-7-6-4-222~1/2~-2-4-2-1-2~-------------|
|---2-----2--------------------------------------------|
|------------------------------------------------------|
|------------------------------------------------------|


A5                        D5                      A5
Y como explicarte lo que siento cada vez que te veo
               E5                   A5-E5-A5-E5
pasando a mi lado en la Universidad

A5                        D5                      A5
Nena han sido tontas veces y vos sabes que existo
               E5                   A5-E5-A5-E5
pero yo a vos te amo aunque no lo sepas

Coro

A5      G#5      F#5      Em    D5          C#5      E5
Ando buscando algo para mi.....solo me quiero divertir.....
A5      G#5      F#5      Em         D5            E5           A5
miles de partes no se a dónde ir.... solo quiero estar junto a tí...


A5                        D5                      A5
Y como olvidar aquella noche..... alla en la licorera
               E5                   A5-E5-A5-E5
estabas con tus amigos...... ibas a festejar........


A5                        D5              A5
Y como olvidar que me miraste...... y yo no pude hablarte
               E5                   A5-E5-A5-E5
por que soy un idiota que nunca fuí capaz.......


Coro

A5      G#5      F#5      Em    D5          C#5      E5
Ando buscando algo para mi.....solo me quiero divertir.....
A5      G#5      F#5      Em         D5            E5           A5
miles de partes no se a dónde ir.... solo quiero estar junto a tí...


Bajo y guitarra hace esto

|-------------------------------|
|-----------------------3-1-----|
|-2-4-2--2-4-2--2-4-2-------4---|
|------2------2------2----------|  x4
|-------------------------------|
|-------------------------------|

D5-C#5-B5 (ESTAS NOTAS SE HACEN REMPLAZANDO EL 3,1,4 DEL PUNTEO
           EN LA 4 VEZ)

A5-A5-A5-A5-D5-C#5  x6

A5                   D5                 A5
Nunca podrías entenderlo, con tu dulce mirada
                E5                    A5       G#5
he conocido el cielo, he vuelto a respirar....
F#5            D5           A5     G#5
solo quiero estar junto a ti...
F#5            D5           A5    G#5     F#5
solo quiero estar junto a ti...

D5~ -D5D5D5D5 - C#5 - A5


Otra mas corregida... compañeros afinen bien sus guitarras
y presten atencion a las notas correctas!!!
Suerte
Suggest correction
Give kudos to tab author, rate the tab!
1 2 3 4 5
comments
print report bad tab
guest
You may want to rate the tab now too:
select rating
Wanna post a correction for this tab? Suggest correction