Oops, an error
Loading. Please wait.

Solo Quiero Estar Junto A Tí Bass Tab

5 views 1 this week
no commentswrite comment
1 2 3 4 5
3 more votes to show rating
add to favorites
launch autoscroll
font size
0
reset
guitar tuner
×
Best way to learn
"Solo Quiero Estar Junto A Tí"
Autoscroll
slow
fast
+/-
esc
set tempo
stop
?Miles de partes...?   ?Solo quiero estar...?
G|-------------------| |-------------------|
D|-------------------| |-------------------|
A|-------------------| |---7--?5-----------|
E|---5---4---2---0---| |-----------7-7-----|

SOLO:
G|--------------------------------------------------|
D|--------------------------------------------------|
A|----------------------------77777-55555-----------|
E|-555555-444444-222222-00000-------------777777777-|

G|------------------------------------------------------|
D|------------------------------------77-76-66-77-76-66-|
A|----------------------------7-5-----------------------|
E|-555555-444444-222222-00000-----77--------------------|

ESTROFA: ?Y como explicarte lo que siento...?
G|-------------------------------------------------------|
D|----------------------------------------------------x2-|
A|---------55555555--------7777777-77-76-66-77-76-66-----|
E|-55555555--------55555555------------------------------|

CORO:
G|--------------------------------------------------|
D|--------------------------------------------------|
A|----------------------------77777-55555-----------|
E|-555555-444444-222222-00000-------------777777777-|

G|------------------------------------------------------|
D|------------------------------------77-76-66-77-76-66-|
A|----------------------------7-5-----------------------|
E|-555555-444444-222222-00000-----77--------------------|

ESTROFA:

CORO:

INSTRUMENTAL:
G|--3-5-3---3-5-3---3-8-7-5------|
D|--------3-------3-----------x6-|
A|-------------------------------|
E|-------------------------------|

G|-----------------------|
D|--------------------x2-|
A|--------------4--3-----|
E|-4-?4?-4--44-----------|

G|-----------------------|
D|--------------------x4-|
A|--------------4--3-----|
E|-44-44-44-44-----------|

?Nunca podrías entenderlo...?
G|----------------------------------------------------|
D|----------------------------------------------------|
A|---------55555555--------7777777--------------------|
E|-55555555--------55555555--------55555555-44444444--|

?Solo quiero estar junto a ti?
G|-------------------------------------|
D|---------------------------------x2--|
A|-7777777-55555555--------------------|
E|------------------77777777777777-----|


LA CANCION ES FACIL SOLO HAY Q TENER EN CUENTA LOS CAMBIOS DE
LA BATERIA PARA QUE LA PARTE INSTRUMENTAL SUENE BIEN Y SI HAY
DUDAS O QUIEREN SOLO CAMBIAR TABS DE GRUPOS COLOMBIANOS
HAY ESTA MI CORREO PARA COMUNICARNOS....SUERTE
Suggest correction
Give kudos to tab author, rate the tab!
1 2 3 4 5
comments
print report bad tab
guest
You may want to rate the tab now too:
select rating
Wanna post a correction for this tab? Suggest correction