Oops, an error
Loading. Please wait.

Solo Quiero Estar Junto A Tí Tab

version 2
version 2

Whole song

20 views 1 this week
no commentswrite comment
1 2 3 4 5
3 more votes to show rating
add to favorites
launch autoscroll
font size
0
reset
how to read this tab
guitar tuner
Autoscroll
slow
fast
+/-
esc
set tempo
stop
Help us to improve Ultimate-Guitar.com Take our survey!
×
Ando buscando algo para mi...
|------------------------------------------------------------------------|
|------------------------------------------------------------------------|
|----------------------------7--7--77-----9--9--99-7--7--77--------------|
|-7--7--77-6--6--66-4--4--44-77777777-99999999-77777777-9--9--9--9--9-99-|
|-77777777-66666666-44444444-55555555-77777777-55555555-9999999999999999-|
|-55555555-44444444-22222222----------------------------7777777777777777-|
   ** **    ** **    ** **    ** **    ** **    ** **    ** ** ** ** *
Miles de partes no se a donde ir...
|--------------------------------------------------------------------|
|--------------------------------------------------------------------|
|----------------------------7--7---7-9--9--99-7--7--77--------------|
|-7--7--77-6--6--66-4--4--44-77777777-99999999-77777777--9--9~~------|
|-77777777-66666666-44444444-55555555-77777777-55555555--9--9~~------|
|-55555555-44444444-22222222-----------------------------7--7~~s12s7-|
   ** **    ** **    ** **    ** **    ** **    ** **

SOLO:
|------------------------------------------------------|
|------------------------------------------------------|
|-3---3-5---3--88-7h5-3v-335-5s8-88-87-7--8-6-5v--7-5--|
|---3-----3------------------------------------------3-|
|------------------------------------------------------|
|------------------------------------------------------|

|----------------------------------------------|
|----------------------------------------------|
|-3---3-5---3--88-7h5-3v-335-5s7----5-3-2-5~~--|
|---3-----3------------------------------------|
|----------------------------------------------|
|----------------------------------------------|

ESTROFA: ?Y como olvidar aquella noche...?
|---------------------------------------------------------|
|---------------------------------------------------------|
|----------77777777----------9999999----------------------|
|-77777777-77777777-77777777-9999999-------------------x2-|
|-77777777-55555555-77777777-7777777-77-76-66-77-76-66----|
|-55555555----------55555555------------------------------|

CORO: Ando buscando algo para mi...
|------------------------------------------------------------|
|------------------------------------------------------------|
|-------------------------7777777-999999-7777777-44444444444-|
|-7777777-6666666-4444444-7777777-999999-7777777-44444444444-|
|-7777777-6666666-4444444-5555555-777777-5555555-22222222222-|
|-5555555-4444444-2222222------------------------------------|

Miles de partes no se a donde ir...
|------------------------------------------------------------------|
|------------------------------------------------44-43-33-44-43-33-|
|-------------------------7777777-999999-7777777-------------------|
|-7777777-6666666-4444444-7777777-999999-7777777-------------------|
|-7777777-6666666-4444444-5555555-777777-5555555-------------------|
|-5555555-4444444-2222222------------------------------------------|

ESTROFA:
|---------------------------------------------------------|
|---------------------------------------------------------|
|----------7-----------------9---999-99-98-88-99-98-88----|
|-7--------77777777-7--------9999999-------------------x2-|
|-77777777-55555555-77777777-7777777----------------------|
|-55555555----------55555555------------------------------|
   *******  *******  *******  ***

CORO: Ando buscando algo para mi...
|------------------------------------------------------------|
|------------------------------------------------------------|
|-------------------------7777777-999999-7777777-44444444444-|
|-7777777-6666666-4444444-7777777-999999-7777777-44444444444-|
|-7777777-6666666-4444444-5555555-777777-5555555-22222222222-|
|-5555555-4444444-2222222------------------------------------|

Miles de partes no se a donde ir...
|-----------------------------------------------------|
|-----------------------------------------------------|
|-------------------------7777777-999999-7777777-4~~--|
|-7777777-6666666-4444444-7777777-999999-7777777-4~~--|
|-7777777-6666666-4444444-5555555-777777-5555555-2~~--|
|-5555555-4444444-2222222-----------------------------|

INSTRUMENTAL:
|-----------------------------|---------------------------|
|-----------------------------|---------------------------|
|-3-5-3---3-5-3---(3)-8-7-5---|-3-5-3---3-5-3---(3)-8-7-5-|
|-------3-------3-------------|-------3-------3-----8-7-5-|
|--------------------------x3-|---------------------6-5-3-|
|-----------------------------|---------------------------|

|----------------------|-----------------------|
|----------------------|-----------------------|
|--------------7--6----|--------------7--6-----|
|-7--7--7--77--7--6-x2-|-77-77-77-77--7--6--x4-|
|-7--7--7--77--5--4----|-77-77-77-77--5--4-----|
|-5-?5?-5--55----------|-55-55-55-55-----------|


?Nunca podrías entenderlo...?
|------------------------------------------------------|
|------------------------------------------------------|
|----------7777777----------99999999-------------------|
|-77777777-7777777-77777777-99999999-77777777-66666666-|
|-77777777-5555555-77777777-77777777-77777777-66666666-|
|-55555555---------55555555----------55555555-44444444-|

?Solo quiero estar junto a ti?
|-------------------------------------|
|-------------------------------------|
|----------77777777-------------------|
|-77777777-77777777-77777777-66666666-|
|-77777777-55555555-77777777-66666666-|
|-55555555----------55555555-44444444-|

?Solo quiero estar junto a ti?
|-----------------------------------------------------------|
|-----------------------------------------------------------|
|----------77777777---------------------------9--9-999-7----|
|-77777777-77777777-77777777-66666666-7777777-9--9-999-7-7--|
|-77777777-55555555-77777777-66666666-7777777-7--7-777-5-7--|
|-55555555----------55555555-44444444-5555555------------5--|

*  = palm mute
s  = slide
h  = hammer on
() = nota fantasta
~~ = let ring
Suggest correction
Give kudos to tab author, rate the tab!
1 2 3 4 5
comments
print report bad tab
guest
You may want to rate the tab now too:
select rating
Wanna post a correction for this tab? Suggest correction