Oops, an error
Loading. Please wait.

Todo Hombre Es Una Historia Tab

16 views 1 this week
no commentswrite comment
1 2 3 4 5
3 more votes to show rating
add to favorites
launch autoscroll
font size
0
reset
how to read this tab
guitar tuner
Autoscroll
slow
fast
+/-
esc
set tempo
stop
Help us to improve Ultimate-Guitar.com Take our survey!
×
E|--------------------|-------------------------|
B|----------------x3--|-------------------------|
G|--------------------|-------------77-4--------|
D|-99999999-777777777-|---4---5---7-77-4--------|
A|-99999999-777777777-|---4---5---7-55-2--------|
E|-77777777-555555555-|-222-333-555-------------|

B5                  G5                  F#5        Riff1
Dijeron que volvería tan pronto se irían las ganas de volar
B5                       G5                         F#5
Era un chico de mi barrio le gritaban que ordinario
                Riff1   B5
por no ser como los demás

E5                     D5           G5       A5            Riff2
Y con su pelo en hombros se le escapo un día toda esa opresión

B5                    G5                        F#5       Riff1
En la calle se sentaban a escuchar lo que pensaba a nadie le importó
B5                  G5                     F#5            Riff1
El amante de la vida de la música que un día ya sus sueños realizó

E5                     D5           G5       A5            Riff2
Y con su pelo en hombros se le escapo un día toda esa opresión

CORO:
B5                   G5   A5                        B5
 Mil historias se contaron de aquel hombre que marcho
B5                   G5 A5                   B5
 Ignorando el que dirán  no importando la razón
B5                   G5   A5                        B5
 Mil historias se contaron de aquel hombre que marcho
B5                   G5 A5                   B5
 Ignorando el que dirán  no importando la razón


E|--------------------|-------------------------------------------|
B|--------------------|-------------------------------------------|
G|--------------------|---------------------------------------x4--|
D|--------------------|-------------------------------------------|
A|-99999999-777777777-|----9--11--12---11--9----6--7--9---7--6----|
E|-77777777-555555555-|-77--77--77--77---77---55-55-55--55-55-----|

E|-------------------------|
B|-------------------------|
G|-7-6-4--4-4-4--4--4-4-4--|
D|-7-6-4--4-4-4--4--4-4-4--|
A|-5-4-2--2-2-2--2--2-2-2--|
E|-------------------------|

B5                          G5                     F#5
Pasó el tiempo y me di cuenta Que eran palabras necias
                Riff1  B5                       G5
Porque nunca se rindió Paso el tiempo ha regresado
      F#5                               Riff1
Trae ojos ya cansados Mas sus sueños realizo


E5                     D5           G5       A5            Riff2
Y con su pelo en hombros se le escapo un día toda esa opresión

CORO:
B5                   G5   A5                        B5
 Mil historias se contaron de aquel hombre que marcho
B5                   G5 A5                   B5
 Ignorando el que dirán  no importando la razón
B5                   G5   A5                        B5
 Mil historias se contaron de aquel hombre que marcho
B5                   G5 A5                   B5
 Ignorando el que dirán  no importando la razón

RIFF 1:
E|-------------------------|
B|-------------------------|
G|-----4--4-4-4--4--4-4-4--|
D|-----4--4-4-4--4--4-4-4--|
A|-5-4-2--2-2-2--2--2-2-2--|
E|-------------------------|

RIFF 2:
E|--------------------|
B|--------------------|
G|--------------------|
D|-9x-9x-9x-9---------|
A|-9x-9x-9x-9---------|
E|-7x-7x-7x-7-10-9-5--|

ACORDES: (POWER CHORDS)
E|-------------------------|
B|-------------------------|
G|---------------------9---|
D|-9----5----4----7----9---|
A|-9----5----4----7----7---|
E|-7----3----2----5--------|

   B5   G5   F#5  A5   E5

ESTA ES UNA CANCION EXCELENTE HECHA COMO TRIBUTO A UNA DE LAS BANDAS
MAS LEGENDARIAS DE ESTE PAIS, COMENTARIOS-DUDAS O COSAS ASI
ROCKANDRES182@
Suggest correction
Give kudos to tab author, rate the tab!
1 2 3 4 5
comments
print report bad tab
guest
You may want to rate the tab now too:
select rating
Wanna post a correction for this tab? Suggest correction