Oops, an error
Loading. Please wait.

Todo Hombre Es Una Historia Bass

25 views 1 this week
no commentswrite comment
1 2 3 4 5
3 more votes to show rating
add to favorites
×
Save as Personal and add changes to this tab that will be seen only by you. Learn more ›
×
You can save this tab as Personal to edit and correct it or add notes. All changes will be seen only by you. Learn more »
save as personal
new!
launch autoscroll
font size
0
reset
guitar tuner
Autoscroll
slow
fast
+/-
esc
set tempo
stop
G|--------------------|-------------------------|
D|--------------X3----|-------------------------|
A|--------------------|-------------55-2--------|
E|-77777777-555555555-|-222-333-555-------------|

?Dijeron q volvería?
G|--------------------------------------------------|----------------|
D|--------------------------------------------------|----------------| x2
A|--------------------------------------------5?4---|----------------|
E|-7-7777777777777-3-333333333333-2-222222222-----5-|-7-777777777757-|

?Y con su pelo en hombros?
G|-------------------------------------------------------------------|
D|-------------------------------------------------------------------|
A|--------------7-777777777777-5-5555555555-?10--12--9-9-9-9---------|
E|-7-7777777777----------------------------------------------12-10-9-|

?Nunca nadie se sentaba?
G|--------------------------------------------------|----------------|
D|--------------------------------------------------|----------------|
A|--------------------------------------------5?4---|----------------|X2
E|-7-7777777777777-3-333333333333-2-222222222-----5-|-7-777777777757-|

?Y con su pelo en hombros?
G|-------------------------------------------------------------------|
D|-------------------------------------------------------------------|
A|--------------7-777777777777-5-5555555555-?10--12--9-9-9-9-9-9-9-9-|
E|-7-7777777777------------------------------------------------------|

CORO: ?Mil historias se contaron...?
G|-----------------------------------------------X4----------------|
D|-----------------------------------------------------------------|
A|----------------------------------------------9---9--9---9---9---|
E|-7-777777777777-3-333333333333-5-5555555555-77--77--7--77--77--7-|

INTERMEDIO:
G|-------------------------------------X6--|-------|------------------|
D|-----------------------------------------|-------|------------------|
A|-9--11--12---11?-9-------6--7--9---7--6--|-5-4-2-|-2-2-2--2--2-2-2--|
E|-----------------------------------------|-------|------------------|

?Paso el tiempo y me di cuenta?
G|--------------------------------------------------|----------------|
D|--------------------------------------------------|----------------|
A|--------------------------------------------5?4---|----------------|X2
E|-7-7777777777777-3-333333333333-2-222222222-----5-|-7-777777777757-|

?Y con su pelo en hombros?
G|-------------------------------------------------------------------|
D|-------------------------------------------------------------------|
A|--------------7-777777777777-5-5555555555-?10--12--9-9-9-9-9-9-9-9-|
E|-7-7777777777------------------------------------------------------|

CORO: ?Mil historias se contaron...?
G|-----------------------------------------------X4----------------|
D|-----------------------------------------------------------------|
A|----------------------------------------------9---9--9---9---9---|
E|-7-777777777777-3-333333333333-5-5555555555-77--77--7--77--77--7-|

FINAL:
G|--------------|
D|--------------|
A|--------------|
E|-7--3--5--77--|
Suggest correction
Give kudos to tab author, rate the tab!
1 2 3 4 5
comments
print report bad tab
guest
Wanna post a correction for this tab? Suggest correction