Oops, an error
Loading. Please wait.

Vení Brindá Tab

13 views 1 this week
no commentswrite comment
1 2 3 4 5
3 more votes to show rating
add to favorites
launch autoscroll
font size
0
reset
how to read this tab
guitar tuner
Autoscroll
slow
fast
+/-
esc
set tempo
stop
Help us to improve Ultimate-Guitar.com Take our survey!
×
bueno pues aka estan las partes de los puntoes y
el solo de guitarra ke les kede debiendo  en el cifrado de acordes.
ke lo disfruten


break:

                Gtr I

e|------------------------------------------|
B|------------------------------------------|
G|-9-9-9-9-8-8-8-8--------------------------|
D|-----------------11-11-11-9---------------|
A|----------------------------12-11-9-11----|
E|------------------------------------------|


|----------------------------|
|----------------------------|
|-----------------9-11-13----|
|---------9-11-13------------|
|-9-11-12--------------------|
|----------------------------|


|-------------------------------------------|
|-------------------------------------------|
|-13-13-13-13-13-13-13-13-11-13-14-13-11----|
|-------------------------------------------|
|-------------------------------------------|
|-------------------------------------------|

  Am                 B

|-----------5------------------7----------|
|---------5---5--------------7---7--------|
|-------6-------6----------8-------8------|
|-----7-----------7------9-----------9----|
|---7------------------9------------------|
|-5------------------7--------------------|

¬¬¬¬¬¬¬¬¬¬¬¬¬¬¬¬¬¬¬¬¬¬¬¬¬¬¬¬¬¬¬¬¬¬¬¬¬¬¬¬¬¬¬¬¬¬¬¬

solo de guitarra:


|----------------------------------------------|
|----------------------------------------------|
|-9-9-9--8-8-------9-9-9-9-9-8-8---------------|
|------------9-9-9---------------9-9-9-9-9-9-9-|
|----------------------------------------------|
|----------------------------------------------|

!---------------------|
!---------------------|
!---------------------|
!9h11h9-9-9-9-9-9-9-9-|
!---------------------|
!---------------------|


|--------------------------------------|
|--------------------------------------|
|--------------------------------------|
|-9h11--9-7-9-9h11-11-11-11-11-11-11-9-|
|--------------------------------------|
|--------------------------------------|
                                     ~
|-----------------------------------------|
|-----------------------------------------|
|--------11----9---------------11----9----|
|9h11-11----11---11-9h11-11-11----11-9----|
|-----------------------------------------|
|-----------------------------------------|


|-------------------------------------------------|
|-------------------------------------------------|
|-9-9-9--8-8-------9-9-9-9-9-8-8------------------|
|------------9-9-9---------------9-9-9-9-9-9-9----|
|-------------------------------------------------|
|-------------------------------------------------|
                                              ~
|-----------------------|-------------------------|
|-----------------------|-------------------------|
|-----------------------|-------------------------|
|-12-12-12-11-11-11-9-9-|-7-7-7-6-6-6-2-/-3-/-4---|
|-10-10-10--9--9--9-7-7-|-5-5-5-4-4-4-0-/-1-/-2---|
|-----------------------|-------------------------|


|-------------------------------|
|-------------------------------|
|-------------------------------|
|-16h18-18-18-16-16-14-13-14----|
|-14h16-16-16-14-14-12-11-12----|
|-------------------------------|


¬¬¬¬¬¬¬¬¬¬¬¬¬¬¬¬¬¬¬¬¬¬¬¬¬¬¬¬¬¬¬¬¬¬¬¬¬¬¬¬¬¬¬¬¬¬¬¬

outro:

|-------------------------------------------|
|-------------------------------------------|
|-13-13-13-13-13-13-13-13-11-13-14-13-11----|  X3
|-------------------------------------------|
|-------------------------------------------|
|-------------------------------------------|

  Am                 B
                                        ~
|-----------5------------------7-----------|
|---------5---5--------------7---7------9--|
|-------6-------6----------8-------8----9--|
|-----7-----------7------9-----------9--9--|
|---7------------------9----------------7--|
|-5------------------7---------------------|


listo estuvo un poko dificil de sacar
porque no se escuchaba mucho el solo en algunas partes
pero ahista correcta.
deben oirla para ke no se pierdan y complementar
con los acordes que mandé anteriormente.
dudas al mail.
suerte con eso y voten.
blinkfredy.
Suggest correction
Give kudos to tab author, rate the tab!
1 2 3 4 5
comments
print report bad tab
guest
You may want to rate the tab now too:
select rating
Wanna post a correction for this tab? Suggest correction