Oops, an error
Loading. Please wait.

Romeo Y Julián Tab

10 views 3 this week
no commentswrite comment
1 2 3 4 5
3 more votes to show rating
add to favorites
launch autoscroll
font size
0
reset
how to read this tab
guitar tuner
×
Best way to learn
"Romeo Y Julián"
Autoscroll
slow
fast
+/-
esc
set tempo
stop
Aquí está esta tablatura de romeo y julian,
que esta pegajosa y muy sencilla,
solo chequen los ritmos y los tiempos.
Saludos a los tradicionales, a los del lux, a León y a todos los que les
guste esta musik.


Entra la guitarra I

Guitarra I 0:05

e|-------------------------------
B|-----12-12-10-10-9-9-----------
G|--7-7---------------------------
D|-------------------------------  x4
A|-------------------------------
E|-------------------------------


Aquí entra el bajo y la guitarra I sigue igual

e|-------------------------------
B|-----12-12-10-10-9-9-----------
G|--7-7---------------------------
D|-------------------------------  x8
A|-------------------------------
E|-------------------------------


Chequen el ritmo 0:20

      E5   B5     A5     B5
e|----------------------------
B|----------------------------
G|---9999---------------------  x 4
D|---9999--9999---7777---9999-
A|---7777--9999---7777---7777-
E|---------7777---5555---7777-


VERSO chequen los tiempos y ritmos

E5                    B5                    A5    B5
Julián camina un poco raro, Romeo camina igual
E5                   B5                        A5    B5
Se ríe tanto de sus chistes que ya ha pensado mal
E5                       B5                        A5  
Suggest correction
Give kudos to tab author, rate the tab!
1 2 3 4 5
comments
print report bad tab
guest
You may want to rate the tab now too:
select rating
Wanna post a correction for this tab? Suggest correction