Oops, an error
Loading. Please wait.

Romeo Y Julián Bass Tab

7 views 1 this week
no commentswrite comment
1 2 3 4 5
3 more votes to show rating
add to favorites
launch autoscroll
font size
0
reset
guitar tuner
×
Best way to learn
"Romeo Y Julián"
Autoscroll
slow
fast
+/-
esc
set tempo
stop
Muy buena rola de los tragafuegos...


Intro(x2)
G|------------------------------------------------
D|------------------------------------------------
A|---7777-----------------------------------------
E|--------7777-5555-7777--------------------------

G|-----------------------------------------
D|------9-7-6------------------------------
A|----7------------------------------------
E|-----------------------------------------

Verso(x3)
G|-----------------------------------------------------
D|-----------------------------------------------------
A|-----7-(x8)------------------------------------------
E|------------7-(x8)-5(x8)-7(x8)-----------------------

Coro(x2)- chequen los tiempos
G|-----------------------------------------------------
D|-----------------------------------------------------
A|-----77777777------------------------------------------
E|-------------7777777-55555555-777777-------------------

G|-----------------------------------------
D|------9-7-6------------------------------ (x8
A|----7------------------------------------
E|-----------------------------------------


Verso(x2)
G|-----------------------------------------------------
D|-----------------------------------------------------
A|-----7-(x8)------------------------------------------
E|------------7-(x8)-5(x8)-7(x8)-----------------------

Coro(x2)- chequen los tiempos
G|-----------------------------------------------------
D|-----------------------------------------------------
A|-----77777777------------------------------------------
E|-------------7777777-55555555-777777-------------------

G|-----------------------------------------------------
D|-----------------------------------------------------
A|-----7--------7----------------------------------
E|-------7-5-7-----------------------------------------
Suggest correction
Give kudos to tab author, rate the tab!
1 2 3 4 5
comments
print report bad tab
guest
You may want to rate the tab now too:
select rating
Wanna post a correction for this tab? Suggest correction