Oops, an error
Loading. Please wait.

El Beso Del Silencio Tab

232 views 1 this week
no commentswrite comment
1 2 3 4 5
3 more votes to show rating
add to favorites
×
Save as Personal and add changes to this tab that will be seen only by you. Learn more ›
×
You can save this tab as Personal to edit and correct it or add notes. All changes will be seen only by you. Learn more »
save as personal
new!
launch autoscroll
font size
0
reset
how to read this tab
guitar tuner
Autoscroll
slow
fast
+/-
esc
set tempo
stop
SOLO LE PUSE EL INTRO DE LA SEGUNDA GUITARRA LUEGO LE PONDRE LOS
DEMAS ARREGLOS Q LLEVA ESTA CANSION, PERO BASICAMENTE LLEVA
LA MISMA TONADA SI TIENEN DUDAS O SUGERENCIAS PORFAVOR HAGANMELO SAVER
A laley-del-punk@

ESTA CASION VA DEDICADA PARA MIS HERMANAS NELSY E YDIEL
Y TABIEN PARA BRISA
E||--------------------------|--------------------------|
B||--------------------------|--------------------------|
G||--------------4--6--7--6--|--4-----4--4--6--8--6~----|
D||--------4--6--------------|-----6--------------------|
A||--4--6--------------------|--------------------------|
E||--------------------------|--------------------------|


--------------------------|--------------------------------|
--------------------6--8--|--10--10--10--8-----------------|
--------------6--8--------|-----------------11--10--8--12--|
--------4--6--------------|--------------------------------|
--4--6--------------------|--------------------------------|
--------------------------|--------------------------------|


                                   ^      v       ^
                                       ARMONICOS
------------------------------|--<>5----<>7----<>12--------||
------------------------------|--<>5----<>7----<>12--------||
--11--10----------------------|--<>5----<>7----<>12--------||
------------------------------|----------------------------||
----------12--10--8--12--8----|----------------------------||
------------------------------|----------------------------||

INTRO C#m-A-B-E X2

      C#m                     A
1.- Dijiste que jamás me dejarías
                         B
Que si el barco se hundiría
                           E
Por mi irías al fondo del mar


    C#m                          A
1.- Dejaste una lagrima a un costado
                        B
Por si algún día despertara y no
                 E
Estuvieras a mi lado


                   C#m
2.-Me tendrías consolado
                  A
Casi muero ilusionado
         G#
A donde fue el amor


   A              B
3.-Y al abrir los ojos
      E             C#m
Encontré un vació enfermo


   A              B
3.-Desperté y la nada
     E         C#m
Cobijaba mi reflejo


   A              B
3.-El beso del silencio
        E          C#m
Me impregnó de soledad


   A               B
4.-El tiempo pasa lento
       E             C#m         A        G#
Desde que tú ya no estás...aaaaaaaaaaaaaa ah ah


                  A
5.-Me he quedado solo
   B                E
Y aun no sé si fui yo
                 C#m
La culpa se extravió


               A
5.-Escupí el dolor
              B
Empapado en alcohol
              E
Sin ti no se ya,
                  C#m
Donde habita la razón


                        A
6.-Quien te dijo te mintió
                B
Al decirte corazón
                    E   C#m-G#
Que insensible era yo


------------------SE REPITEN ACORDES-------------------

1.- Colgaste la esperanza a un milagro
De bebernos el fracaso si aun podíamos intentarlo

1.-Y desgastamos el alma en pedazos
Discutiendo soluciones que no llegan a ningún lugar

2.-Por intensiones
¡¡Ohoh!!
Desconfiadas...

3.- Y al abrir los ojos
Encontré un vació enfermo

3.- Desperté y la nada
Cobijaba mi reflejo

3.-El beso del silencio
Me impregnó de soledad

4.-El tiempo pasa lento
Desde que tu ya no estás?

5.-Me he quedado solo
Y aun no sé si fui yo
La culpa se extravió

5.-Escupí el dolor
Empapado en alcohol
Sin ti no se ya
Donde habita la razón

             A                     B
El deseo se fugo de saber dónde estás tú
            C#m
Y apague la luz


AL FINAL ACOMPAÑAMIENTO DE TROMPETAS

C#m-A-B-E
Suggest correction
Give kudos to tab author, rate the tab!
1 2 3 4 5
comments
print report bad tab
guest
Wanna post a correction for this tab? Suggest correction