Oops, an error
Loading. Please wait.

Un Segundo Más Tab

40 views 1 this week
no commentswrite comment
1 2 3 4 5
3 more votes to show rating
add to favorites
launch autoscroll
font size
0
reset
how to read this tab
guitar tuner
Autoscroll
slow
fast
+/-
esc
set tempo
stop
Help us to improve Ultimate-Guitar.com Take our survey!
×
Bueno les dejo el solo de esta cancion
ya que las notas me las ganaron pero de a
minimo el solo todavia no lo suben

AQUI SE LOS DEJO:
INTRO:

g-12-12-12--10-10-10--9-9-9-10-10-10||
d--x--x--x---x--x--x--x-x-x--x--x--x||
a-10-10-10---8--8--8--7-7-7--8--8--8||x2

g-7-5-7-10-10-10-12-12-12-10-10-10||
d-x-x-x--x--x--x--x--x--x--x--x--x||
a-9-7-9--8--8--8-10-10-10--8--8--8||

g-7-5-7-10-10-10-12||
d-x-x-x--x--x--x--x||
a-9-7-9--8--8--8-10||

PARTE DEL TECLADO:

b-12-11-12-11-12-11-12-11-12||x2 -14-12-11|

b-12-11-9--12-11-9-7/9-9/11-11h12-12/14-14/12-12p11-11-9|
Bueno les dejo el solo de esta cancion
ya que las notas me las ganaron pero de a
minimo el solo todavia no lo suben

AQUI SE LOS DEJO:
INTRO:

g-12-12-12--10-10-10--9-9-9-10-10-10||
d--x--x--x---x--x--x--x-x-x--x--x--x||
a-10-10-10---8--8--8--7-7-7--8--8--8||x2

g-7-5-7-10-10-10-12-12-12-10-10-10||
d-x-x-x--x--x--x--x--x--x--x--x--x||
a-9-7-9--8--8--8-10-10-10--8--8--8||

g-7-5-7-10-10-10-12||
d-x-x-x--x--x--x--x||
a-9-7-9--8--8--8-10||

PARTE DEL TECLADO:

b-12-11-12-11-12-11-12-11-12||x2 -14-12-11|

b-12-11-9--12-11-9-7/9-9/11-11h12-12/14-14/12-12p11-11-9|

DESPUES SIGUEN LAS NOTAS QUE SON:

E-C#m-A-B con un arpegeo(hASTA EL CORO CUANDO METEN QUINTAS)
en las cuatro primeras cuerdas (TODAS LAS NOTAS CON CEJILLA)

Y EN LA SEGUNDO VUELTA DEL CAMBIO DONDE VAN LAS NOTAS:
A-B-C#m-E (ANTES DEL SOLO) VA UNA FIGURA QUE ES EN QUINTAS:

d-2-2-2-2-2-2-4-4-4-4-4-4-6-6-6-8-8-8-9-9-9-11-11
a-0-0-0-0-0-0-2-2-2-2-2-2-4-4-4-6-6-6-7-7-7--9--9
p   . .   . .   . .   . .   . .   . .   . .

SOLO:

b---------11b12-11~-9-------9Ah-||   -----||
g-----9-11-----------11-9-11----||   -11-9||
d-9-11--------------------------||x2 -----||

b--9---9-9||
g-11b13---||x5

e-12-10-9--------------------------||
b---------12-10-9--10-9-10-12b13-12||

   T        T
b-12-8-5-8-10-8-5-8||x4

  T           T
e-17-13-10-13-15-13-10-13||x4

ESTO ES MAS RAPIDO:
 |------------------------------|
    T           T
 |e-17-13-10-13-15-13-10-13||x8 |
 |------------------------------|

Y EL ULTIMO:

e-10---10-10-12---12-12-13---13-13-15---15-15-17---17||
b-13b15------15b17------16b18------18b20------20b22--||


                    / = Slide
                    h = Hamer on
                    p = Pull of
                    Ah = Armonico artificial
                    T = Tapingg

Eso es todo espero y les ayude, y si quieren ver
como se hace vean mi video en youtube:

Suggest correction
Give kudos to tab author, rate the tab!
1 2 3 4 5
comments
print report bad tab
guest
You may want to rate the tab now too:
select rating
Wanna post a correction for this tab? Suggest correction