Oops, an error
Loading. Please wait.

No Regresará Tab

8 views 1 this week
no commentswrite comment
1 2 3 4 5
3 more votes to show rating
add to favorites
launch autoscroll
font size
0
reset
how to read this tab
guitar tuner
Autoscroll
slow
fast
+/-
esc
set tempo
stop
Help us to improve Ultimate-Guitar.com Take our survey!
×
[olaas melazas =D jee ota vezz pa mandar sta kancion :p ia pzz ojala k te bien:p weno pz no sabo si
usan pedal o algo pero la wada k no suena iwal pz :p pero si sale pzz tu nomas toka mela!!:p je tmb
nozabo mui bien la letra pero ai la entienden pz]

intro
======
  aka jalas la nota ata el kuarto traste pa k suene maso pz komo la kancion:p
    F#5[x5] G#5
    B5[x5]  C#5[x5](too 2 veces pz)
 ===============================================================================
 [verso 1]

  F#5      C#5                D#5                                B5
  se ke te perdi y aora estoy aki buskando el rekuerdo k tu amor dejo
  C#5              F#5
  sentado frente de mi
  F#5         C#5                D#5                                  B5
  mañana sera igual buskando una razon llorando al espejo y la misma ilusion
  C#5           F#5
  perdida en mi korazon
  F#5         C#5         D#5                                         B5
  se k estuvo mal k nunka komprenderas las oras perdidas trantando de hallar
  C#5         F#5
  respuesta y nada mas
  F#5          C#5                D#5               B5        C#5
  ya no volveras nego kual fue mi error akaso en ti kedo ......¿?.........

  koro
  ====
  D#5                      C#5                      F#5
  trato de hallar en mi tu kalor pero no puedo todo akabo se me ace dificil
           F5
  estar de pie
  D#5                            C#5                    F#5
  y ahora k pienso en donde stas tu si algun dia podras perdonar lo siento mi
                   F5
  amor no fue para ti
  B5  C#5             F#5 F5 D#5 D#5 D#5 F#5 F#5 F#5 C#5 D#5  F#5
  y lo se nunka regresara
               F#5 F5 D#5 D#5 D#5 F#5 F#5 F#5 C#5 D#5  F#5
  nunka regresara
  es ke nunka regresara!!!

 punteo:
 =======
 E|------------------------------------------------------6-6-6-7-7-6-6-6-2-2-4-4-7-7-6-6-|
 B|-7-7-7-7-9-7-7-7-6-7-7-7-7-9-9-7-7-7-7--7-7-7-9-9-7-7---------------------------------|
 G|--------------------------------------------------------------------------------------|
 D|--------------------------------------------------------------------------------------|
 A|--------------------------------------------------------------------------------------|
 E|--------------------------------------------------------------------------------------|


 E|-2-2-4-4-7-7-6-6-14-14-14-13-13-13-11-11-11-13-13-13-14-14-14-14-14-14-14-16-16-16-16-16-14|
 B|-------------------------------------------------------------------------------------------|
 G|-------------------------------------------------------------------------------------------|
 D|-------------------------------------------------------------------------------------------|
 A|-------------------------------------------------------------------------------------------|
 E|-------------------------------------------------------------------------------------------|

 [verso 2]

   F#5         C#5                D#5                                  B5
  mañana sera igual buskando una razon llorando al espejo y la misma ilusion
  C#5           F#5
  perdida en mi korazon
  F#5         C#5         D#5                                         B5
  se k estuvo mal k nunka komprenderas las oras perdidas trantando de hallar
  C#5         F#5
  respuesta y nada mas

  koro
  ====
  D#5                      C#5                      F#5
  trato de hallar en mi tu kalor pero no puedo todo akabo se me ace dificil
           F5
  estar de pie
  D#5                            C#5                    F#5
  y ahora k pienso en donde stas tu si algun dia podras perdonar lo siento mi
                   F5
  amor no fue para ti
  B5  C#5             F#5 F5 D#5 D#5 D#5 F#5 F#5 F#5 C#5 D#5  F#5
  y lo se nunka regresara
               F#5 F5 D#5 D#5 D#5 F#5 F#5 F#5 C#5 D#5  F#5
  nunka regresara
  es ke nunka regresara!!!

 punteo final:
 =============
 E|------------------------------------------------------6-6-6-7-7-6-6-6-2-2-4-4-7-7-6-6-|
 B|-7-7-7-7-9-7-7-7-6-7-7-7-7-9-9-7-7-7-7--7-7-7-9-9-7-7---------------------------------|
 G|--------------------------------------------------------------------------------------|
 D|--------------------------------------------------------------------------------------|
 A|--------------------------------------------------------------------------------------|
 E|--------------------------------------------------------------------------------------|


 E|-2-2-4-4-7-7-6-6-14-14-14-13-13-13-11-11-11-13-13-13-14-14-14-14-14-14-14-16-18-19-18-
 B|--------------------------------------------------------------------------------------
 G|--------------------------------------------------------------------------------------
 D|--------------------------------------------------------------------------------------
 A|--------------------------------------------------------------------------------------
 E|--------------------------------------------------------------------------------------


19-18[varias veces]-16-16-18-16-16-18-18-18-19-18-16-18-16-14|
-------------------------------------------------------------|
-------------------------------------------------------------|
-------------------------------------------------------------|
-------------------------------------------------------------|
-------------------------------------------------------------|


 i iaaaaa ai ta too. en el punteo final si me e webiado al ultimo la arreglan pzz pero 
asi es la wada asi k no se kejen :D chuzzzz melasas xD
Suggest correction
Give kudos to tab author, rate the tab!
1 2 3 4 5
comments
print report bad tab
guest
You may want to rate the tab now too:
select rating
Wanna post a correction for this tab? Suggest correction