Oops, an error
Loading. Please wait.

Por Que A Mí Chords

4 views 1 this week
no commentswrite comment
1 2 3 4 5
3 more votes to show rating
add to favorites
launch autoscroll
font size
0
reset
transpose
0
reset
simplify chords
display chords
guitar tuner
Autoscroll
slow
fast
+/-
esc
set tempo
stop
Help us to improve Ultimate-Guitar.com Take our survey!
×
   D5 · A5 · A5(7º traste)        2 VECES


                         A5
 D5         A5      (7º traste)    A5
-------------------------------------------------
-------------------------------------------------
-7-7---------------------------------------------
-7-7--7-5-0--7-7--7-5-0--9-9--7-5-0--7-7--5-7-0--  2 VECES
-5-5---------7-7---------9-9---------7-7---------
-x-x---------5-5---------7-7---------5-5---------


  VERSO:

 D5               A5
    El nunka supo la verdad
                    LA5(7º traste)
    de tu engaño sin piedad,
                   A5
    tus palabras al hablar de el 

    fueron un juego nada mas.
 D5               A5
    La otra noche ke pase
                 LA5(7º traste)
    x el viejo bar,   
                     A5
    a la vuelta de esa eskina 

    yo te vi pasar.
 D5                A5
    Rekorde ke en ese bar
                     LA5(7º traste)
    tu te hiciste conocer,
                    A5
    como puta de ese kabaret
                       D5
    tu bailabas para mi.


  KORO:

 D5           
    Kuando alkohol korre
 A5
    x tus venas
 LA5(7º traste)
    y de tus penas
 A5              D5
    ya no keda mas...


   D5 · A5 · A5(7º traste)    


  VERO:

 D5
    Oye tío 
 A5          A5(7º traste)    
    kedaste mal parado
                A5
    ahora es tiempo

    ke te olvides de esa mujer...
 

 KORO:

 D5           
    Kuando alkohol korre
 A5
    x tus venas
 LA5(7º traste)
    y de tus penas
 A5              D5
    ya no keda mas...


    D5 · A5 · A5(7º traste)    repite


                        A5
 D5         A5      (7º traste)    A5        D5
----------------------------------------------------
----------------------------------------------------
-7-7---------------------------------------------7--
-7-7--7-5-0--7-7--7-5-0--9-9--7-5-0--7-7--5-7-0--7-- 1 VECES
-5-5---------7-7---------9-9---------7-7---------5--
-x-x---------5-5---------7-7---------5-5---------x--


bueno, eso es todo pes...es facil la kancion...espero ke les suene bien...kualkier cosa
escribanme a mi mail y disfruten de la musika y de esta kancion, ke son de la PUTA MADRE...


                                     ChRiStOpHeR
Suggest correction
Give kudos to tab author, rate the tab!
1 2 3 4 5
comments
print report bad tab
guest
You may want to rate the tab now too:
select rating
Wanna post a correction for this tab? Suggest correction