Oops, an error
Loading. Please wait.

Porque A Mí Chords

2 views 1 this week
no commentswrite comment
1 2 3 4 5
3 more votes to show rating
add to favorites
launch autoscroll
font size
0
reset
transpose
0
reset
simplify chords
display chords
guitar tuner
×
Best way to learn
"Porque A Mí"
Autoscroll
slow
fast
+/-
esc
set tempo
stop
Puta mare aki les va la kncion para los amantes del punk,
el otro kojudo q ha enviado su tablatura lo ha hecho hasta
el kulo, asi k aki les va la verdadera ;)


D5 (Rasgueo: Abajo-Abajo-arriba-Abajo-arriba-Abajo)
e ---------------------------------
b ---------------------------------
g ---------------------------------
d ------7-7-7---5-4-4-5------------
a ---------------------------------
E ---------------------------------

B5 (Rasgueo: abajo-abajo-arriba-abajo-arriba-abajo)
e ---------------------------------
b ---------------------------------
g ---------------------------------
d ------7-7-7---5-4-4-5------------
a ---------------------------------
E ---------------------------------

C5 (Rasgueo: Abajo-Abajo-arriba-Abajo-arriba-Abajo)
e ---------------------------------
b ---------------------------------
g ---------------------------------
d ------7-7-7---5-4-4-5------------
a ---------------------------------
E ---------------------------------

A5 (Rasgueo: abajo-abajo-arriba-abajo-arriba-abajo)
e ---------------------------------
b ---------------------------------
g ---------------------------------
d ---------------------------------
a ------7-7-7----5-4-4-5-----------
E ---------------------------------

DESPUES VIENE......(2 veces tio)


D5 (Rasgueo: Abajo-Abajo)
e ---------------------------------
b ---------------------------------
g ---------------------------------
d ------7-----5--4-------------
a ---------------------------------
E ---------------------------------

B5 (Rasgueo: abajo-abajo)
e ---------------------------------
b ---------------------------------
g ---------------------------------
d ------7-----5--4-------------
a ---------------------------------
E ---------------------------------

C5 (Rasgueo: Abajo-Abajo)
e ---------------------------------
b ---------------------------------
g ---------------------------------
d ------7-----5--4-------------
a ---------------------------------
E ---------------------------------

A5 (Rasgueo: abajo-abajo)
e ---------------------------------
b ---------------------------------
g ---------------------------------
d ---------------------------------
a ------7------5-4-------------
E ---------------------------------

D5                  B5                  C5
El nunca supo la verdad de tu engaño sin piedad
                   A5                    D5
tus palabras al hablarle fueron juego nada mas
                  B5                C5
la otra noche que pase por el viejo bar
                      A5           D5
a la vuelta de esa eskina yo te vi pasar

                  B5              C5
Recorde q en ese bar t hiciste conocer
               A5                    D5
como puta t sentabas tu bailabas para mi
                B5             C5
cuanto alcohol corre por tus venas
           A5           D5
y de tus venas ya no keda mas

           B5
ya no keda mas
           C5
ya no keda mas
           A5
ya no keda mas


       B5                 C5
Oye tio kedaste mal parado
          A5                      D5
pero el tiempo q te olvides de esa mujer
                 B5           C5
cuanto alcohol corre por tus venas
           A5           D5
y de tus venas ya no keda mas

        B5
ya no keda mas
        C5
ya no keda mas
       A5
ya no keda mas


DESPUES VIENE......(2 veces tio)

D5 (Rasgueo: Abajo-Abajo)
e ---------------------------------
b ---------------------------------
g ---------------------------------
d ------7-7-7---5-4-4-5------------
a ---------------------------------
E ---------------------------------

B5 (Rasgueo: abajo-abajo)
e ---------------------------------
b ---------------------------------
g ---------------------------------
d ------7-7-7---5-4-4-5------------
a ---------------------------------
E ---------------------------------

C5 (Rasgueo: Abajo-Abajo)
e ---------------------------------
b ---------------------------------
g ---------------------------------
d ------7-7-7---5-4-4-5------------
a ---------------------------------
E ---------------------------------

A5 (Rasgueo: abajo-abajo)
e ---------------------------------
b ---------------------------------
g ---------------------------------
d ---------------------------------
a ------7-7-7----5-4-4-5-----------
E ---------------------------------

Y YA PS LE DIGO AL OTRO POSERO XQ ESO LO Q ES,
UN POSERO Q KIERE FIGURAR, Q NO MANDA WADAS PS
YA SI NO LO SAKN CON ESTA AYUDA Q LES HE DADO
MANDENSE A MATAR, MEJOR MUERANSE, DEDIQUENSE
A OTRA COSA, A LIMPIAR CARROS, A VENDER CARAMELOS
... UN SALUDOTE PARA MI BANDA PUNK PS DKBZ4
Y PARA MI EX AMOR CLAUDIA JAJA....AHI NOS VIDRIOS
Suggest correction
Give kudos to tab author, rate the tab!
1 2 3 4 5
comments
print report bad tab
guest
You may want to rate the tab now too:
select rating
Wanna post a correction for this tab? Suggest correction