Oops, an error
Loading. Please wait.

Me Marcho De Aquí Tab

13 views 1 this week
no commentswrite comment
1 2 3 4 5
3 more votes to show rating
add to favorites
×
Save as Personal and add changes to this tab that will be seen only by you. Learn more ›
×
You can save this tab as Personal to edit and correct it or add notes. All changes will be seen only by you. Learn more »
save as personal
new!
launch autoscroll
font size
0
reset
how to read this tab
guitar tuner
Autoscroll
slow
fast
+/-
esc
set tempo
stop
Para esta trascripción de tragokorto, les digo que no esta como
se dice del todo bien, pero sirve de algo.
Un saludo para todo mi promo, el chambon, el yuri, el rojo, la
chichi, el duro, el cerdix, el picho, el fred, el marco y toda
esa gente bien chévere que aunque jodida es pata.

INTRO:

Para el intro se da palm mute a cada uno de estos acordes
mencionados abajo dándoles un rasgueo hacia abajo a cado uno.

2da guitarra:

E-----------------------------|
B-----------------------------|
G-----------------------------|
D-5555-9999-5555-999-7--------| X3
A-5555-9999-5555-999-7--------|
E-3333-7777-3333-777-5--------|

Y luego:

E-----------------------------|
B-----------------------------|
G-----------------------------|
D-5555-9999-5555-9------------|
A-5555-9999-5555-9------------|
E-3333-7777-3333-7------------|

1ra guitarra:

E-----------------------------|
B-----------------------------|
G-000-2-00-4-00-2-00-444-2----|
D-----------------------------| X2
A-----------------------------|
E-----------------------------|

Y luego:

E-----------------------------|
B-----------------------------|
G-000-2-00-4-00-2-00-4--------|
D-----------------------------|
A-----------------------------|
E-----------------------------|

2da guitarra: ahora ya comienza la segunda guitarra y ustedes
escuchen la kanción y le aumentan los palm mutes.

E-----------------------------|
B-----------------------------|
G-----------------------------|
D-999-10--9-7-5---------------|
A-999-10--9-7-5---------------|
E-777--8--7-5-3---------------|


ESTROFAS:

Aca comienzan los rasgueos, ojo con los palm mutes.

E---------------------------------------------|
B---------------------------------------------|
G------------555555---------------------------|
D-5-55555555-555555-2-22222222-777777---------| X4
A-5-55555555-333333-2-22222222-777777---------|
E-3-33333333--------0-00000000-555555---------|


1ra guitarra:

E-222-333-22------------222-333-22-3-22-3-22-3-2-| termina en 3
B------------111-000-----------------------------|
G--------------------22--------------------------|
D------------------------------------------------| X2
A------------------------------------------------|
E------------------------------------------------|

CORO: Ambas guitarras.

E---------------------------------------|
B----------------------------44444444---|
G----------------------------xxxxxxxx---|
D----------------------------22222222---| X3
A-55555555-99999999-77777777------------|
E-33333333-77777777-55555555------------|

Y luego:

E-------------------------------|
B-------------------------------|
G-------------------------------|
D-------------------------------|
A-55555555-99999999-77777777----|
E-33333333-77777777-55555555----|

Luego viene esta parte:

2da guitarra: en palm mute

E-----------------------------|
B-----------------------------|
G-----------------------------|
D-5555-9999-5555-999-7--------| X3
A-5555-9999-5555-999-7--------|
E-3333-7777-3333-777-5--------|

Y luego:

E-----------------------------|
B-----------------------------|
G-----------------------------|
D-5555-9999-5555-99999--------|
A-5555-9999-5555-99999--------|
E-3333-7777-3333-77777--------|

1ra guitarra: mientras esta hace esto.

E------------------7---------10-10-10-10-12-10-8-7--|
B---8----8----8-------8----8------------------------|
G-99-9-99-9-99-9-99-99-9-99-9-----------------------|
D---------------------------------------------------|
A---------------------------------------------------|
E---------------------------------------------------|

E------------------7---------10-10-10-10-12-10-10-10-12|
B---8----8----8-------8----8---------------------------|
G-99-9-99-9-99-9-99-99-9-99-9--------------------------|
D------------------------------------------------------|
A------------------------------------------------------|
E------------------------------------------------------|

ESTROFAS:

Siguen los palm mutes.

E---------------------------------------------|
B---------------------------------------------|
G------------555555---------------------------|
D-5-55555555-555555-2-22222222-777777---------| X4
A-5-55555555-333333-2-22222222-777777---------|
E-3-33333333--------0-00000000-555555---------|


1ra guitarra:

E-222-333-22------------222-333-22-3-22-3-22-3-2-| termina en 3
B------------111-000-----------------------------|
G--------------------22--------------------------|
D------------------------------------------------| X2
A------------------------------------------------|
E------------------------------------------------|


CORO: Ambas guitarras.

E---------------------------------------|
B----------------------------44444444---|
G----------------------------xxxxxxxx---|
D----------------------------22222222---| X5
A-55555555-99999999-77777777------------|
E-33333333-77777777-55555555------------|

Y luego:

E--------------------------------------|
B--------------------------------------|
G--------------------------------------|
D-----------------------------------5--|
A-55555555-99999999-7777777-7-------5--|
E-33333333-77777777-5555555-5-------3--|


ACÁ LAS LETRAS:

ESTROFAS:

Intente cambiar
No mentirte más
Y no se xq
Vuelvo a fallar

Siento que tal vez
Nada puedo hacer
Pero lo mejor
Es alejarme de aquí

CORO: X2

Me marcho de aquí
Sabiendo que no
Podré ser feliz
Si no es junto a ti

Difícil decisión
Que hoy me toca elegir
Y espero mi amor
Te olvides de mi

ESTROFAS:

Basta de sufrir
Y causarte dolor
Empapar tus mejillas
Todo por mi error

Siento que tal vez
Nada puedo hacer
Pero lo mejor
Es alejarme de aquí

CORO: X3

Me marcho de aquí
Sabiendo que no
Podré ser feliz
Si no es junto a ti

Difícil decisión
Que hoy me toca elegir
Y espero mi amor
Te olvides de mí


Bueno esto es todo ps, si van a sacar el bajo solo usen las
cuerdas A y E presionando en el traste que se menciona.
Suggest correction
Give kudos to tab author, rate the tab!
1 2 3 4 5
comments
print report bad tab
guest
Wanna post a correction for this tab? Suggest correction