Oops, an error
Loading. Please wait.

No Regresará Tab

43 views 1 this week
no commentswrite comment
1 2 3 4 5
3 more votes to show rating
add to favorites
launch autoscroll
font size
0
reset
how to read this tab
guitar tuner
×
Best way to learn
"No Regresará"
Autoscroll
slow
fast
+/-
esc
set tempo
stop
weno fanatikos aki les traigo una muy buena de tragokorto esta en kintas
sakense la segunda xq es casi toda la cancion si kieren mas ahi
ta la primera

INTRO:

(Segunda guitarra)
F# C# D# B-C# (x2)

(Primera guitarra)
e|-----------------------------------------------------|
B|-----------------------------------------------------|
G|-----------------------------------------------------|
D|-4-4-4-4--4-6--4-4-4-4--4-6--4-4-4-4--4-6-4-4-4-6-6-4| x2
A|-----------------------------------------------------|
E|-----------------------------------------------------|

(Ambas guitarras)
F#            C#                 D#
Yo se ke te perdí, y ahora estoy aki
                                  B       C#
Buscando el recuerdo que tu amor dejo, sentado frente de mí
F#            C#                 D#
Mañana será igual, buscando una razón
                                  B       C#
Llorando al espejo y la misma ilusión, perdida en un corazón

(Segunda guitarra)
F#              C#                 D#
Yo se ke estuvo mal, que nunca comprenderás
                                  B       C#
Las horas perdidas tratando de hallar, respuesta y nada más
F#         C#                     D#
Ya no volverás, dime cual fue mi error
             B                C#
Acaso en ti kedo, la duda de ser y no llevar

(Primera guitarra)
e|-----------------------------------------------------|
B|-----------------------------------------------------|
G|-6-6-6-4-4-4-3-3-3-4-4-4--6-6-6-4-4-4-3-3-3-4-4-4----|
D|-----------------------------------------------------|
A|-----------------------------------------------------|
E|-----------------------------------------------------|

e|-------------------------|
B|-------------------------|
G|-------3-3-3-4-4-4-3-3-3-| x2
D|-4-6-6-------------------|
A|-------------------------|
E|-------------------------|

PRE CORO
(Ambas guitarras)
D#                        C#
Trato de hallar el mismo calor
                     F#                               F
pero no puedo todo acabo se me hace difícil estar de pie
D#                             C#
Y ahora que pienso donde estas tu
                       F#                                F
si algún día podrás perdonar lo siento mi amor no fui para ti

CORO

(Segunda guitarra)
B      C#                   F#  F  D#  B  C#
Y lo se, ella nunca regresará
                   F#  F  D#  B  C#
Ella nunca regresará
                     F#  C#  D#  B  C#
Ella nunca regresaraaa!

(Primera guitarra)
  B    C#    F#    F
e|-----------------------------------------|
B|-----------------------------------------|
G|-----------------------------------------|
D|-----------------------------------------|
A|--------------------6-8-9-8-9-6--9-8-----|
E|-----------------------------------------|

F#    F
e|----------------------------|
B|----------------------------|
G|----------------------------|
D|----------------------------|
A|-------6-8-9-8-9-6--9-8-----|
E|----------------------------|

e|-------------------------------------------------------------------|
B|-7-7-7-7-7-9-9-9-7-7-7-7-7-7-7-7-9-9-9-7-7-7-7-7-7-7-7-9-9-9-7-7-7-|
G|-------------------------------------------------------------------|
D|-------------------------------------------------------------------|
A|-------------------------------------------------------------------|
E|-------------------------------------------------------------------|

e|----------------------------------|
B|-11-11-11-11-11-12-12-12-11-11-11-|
G|----------------------------------|
D|----------------------------------|
A|----------------------------------|
E|----------------------------------|

INTERMEDIO
(Segunda guitarra)
F# C# D# B-C# (x2)

(Primera guitarra)
e|-------------------------------|
B|-7-7-7-9-9-9-12-12-12-11-11-11-|
G|-------------------------------| x2
D|-------------------------------|
A|-------------------------------|
E|-------------------------------|

e|-14-14-14-13-13-13-11-11-11-13-13-13-14-16-14-|
B|----------------------------------------------|
G|----------------------------------------------|
D|----------------------------------------------|
A|----------------------------------------------|
E|----------------------------------------------|

F#            C#                 D#
Mañana será igual, buscando una razón
                                  B       C#
Llorando al espejo y la misma ilusión, perdida en un corazón
F#              C#                 D#
F#              C#                 D#
Yo se ke estuvo mal, que nunca comprenderás
                                  B       C#
Las horas perdidas tratando de hallar, respuesta y nada más
F#         C#                     D#

PRECORO
(Ambas guitarras)
D#                        C#
Trato de hallar el mismo calor
                     F#                               F
pero no puedo todo acabo se me hace difícil estar de pie
D#                             C#
Y ahora que pienso donde estas tu
                       F#                                F
si algún día podrás perdonar lo siento mi amor no fui para ti

CORO

(Segunda guitarra)
B      C#                   F#  F  D#  B  C#
Y lo se, ella nunca regresará
                   F#  F  D#  B  C#
Ella nunca regresará
                     F#  C#  D#  B  C#
Ella nunca regresaraaa!

(Primera guitarra)
  B    C#    F#    F
e|-----------------------------------------|
B|-----------------------------------------|
G|-----------------------------------------|
D|-----------------------------------------|
A|--------------------6-8-9-8-9-6--9-8-----|
E|-----------------------------------------|

F#    F
e|----------------------------|
B|----------------------------|
G|----------------------------|
D|----------------------------|
A|-------6-8-9-8-9-6--9-8-----|
E|----------------------------|

e|-------------------------------------------------------------------|
B|-7-7-7-7-7-9-9-9-7-7-7-7-7-7-7-7-9-9-9-7-7-7-7-7-7-7-7-9-9-9-7-7-7-|
G|-------------------------------------------------------------------|
D|-------------------------------------------------------------------|
A|-------------------------------------------------------------------|
E|-------------------------------------------------------------------|

e|----------------------------------|
B|-11-11-11-11-11-12-12-12-11-11-11-|
G|----------------------------------|
D|----------------------------------|
A|----------------------------------|
E|----------------------------------|

OUTRO

(segunda guitarra)
F# C# D# B-C# termina en F#

(primera guitarra)
e|-------------------------------|
B|-7-7-7-9-9-9-12-12-12-11-11-11-|
G|-------------------------------| x2
D|-------------------------------|
A|-------------------------------|
E|-------------------------------|

e|-14-14-14-13-13-13-11-11-11-13-13-13-14-16-16-16-18-18-18-|
B|----------------------------------------------------------|
G|----------------------------------------------------------|
D|----------------------------------------------------------|
A|----------------------------------------------------------|
E|----------------------------------------------------------|

e|-19-19-19-18-18-18--|     e|-16-16-18-16-16-18-19-19-18-16-18-16-14-|
B|--------------------|     B|----------------------------------------|
G|--------------------| x8  G|----------------------------------------|
D|--------------------|     D|----------------------------------------|
A|--------------------|     A|----------------------------------------|
E|--------------------|     E|----------------------------------------|

complicado? naaa! sakenla toda, saludos
Suggest correction
Give kudos to tab author, rate the tab!
1 2 3 4 5
comments
print report bad tab
guest
You may want to rate the tab now too:
select rating
Wanna post a correction for this tab? Suggest correction