Oops, an error
Loading. Please wait.

Por Que A Mí Tab

13 views 1 this week
no commentswrite comment
1 2 3 4 5
3 more votes to show rating
add to favorites
launch autoscroll
font size
0
reset
how to read this tab
guitar tuner
Autoscroll
slow
fast
+/-
esc
set tempo
stop
Help us to improve Ultimate-Guitar.com Take our survey!
×
INTRO:

e------------    e------------
B------------    B------------
G------------    G------------
D-777-5-44---    D------------
A----------5-    A-444-5-44---
E------------    E----------5-
  D5-F#5-B5            A5

e---------   e------------
B---------   B------------
G---------   G------------
D-7-5-4p0-   D------------
A---------   A-444-5-44-5-
E---------   E------------
 D5-F#5-B5         A5

D5                  F#5
El nunca supo la verdad
                     B5
De tu engaño sin piedad
                    A5
Tus palabras al hablar de el
                   D5
Fueron juego nada mas
                   F#5
La otra noche que pase
              B5
Por el viejo bar
                      A5
A la vuelta de esa esquina
            D5
Yo te vi pasar
                   F#5
Recorde que en ese bar
                   B5
Tu te hiciste conocer
                 A5
Como puta de ese cabaret
                 D5
Tu bailabas para mil

e--------------------
B--------------------
G-7-6-6/11-12-11-9-7- estas octavas acompañan las
A-x-x-x/x--x--x--x-x- estrofas y el coro
D-5-4-4/9--10-9--7-5-
E--------------------


Coro:
D5                 F#5
Cuanto alcohol corre
           B5
Por tus venas
            A5
Y de tus penas
             D5
Ya no queda mas
            F#5
Ya no queda mas
             B5
Ya no queda mas
             A5
Ya no queda mas

e----------------------------------------------
B--------------7-----------------------7-8-7---
G-7--7/9-7-6-7---7/9-7-6-7---7/9-7-6-7-------9-
D--------------------------9-------------------
A----------------------------------------------
E----------------------------------------------

D5       F#5
   Oye tio
                B5
Quedaste mal parado
              A5
Pero es tiempo
                         D5
Que te olvides de esa mujer


Coro
Suggest correction
Give kudos to tab author, rate the tab!
1 2 3 4 5
comments
print report bad tab
guest
You may want to rate the tab now too:
select rating
Wanna post a correction for this tab? Suggest correction