Oops, an error
Loading. Please wait.

El Invierno En La Fábrica Chords

25 views 3 this week
no commentswrite comment
1 2 3 4 5
3 more votes to show rating
add to favorites
launch autoscroll
font size
0
reset
transpose
0
reset
display chords
guitar tuner
Autoscroll
slow
fast
+/-
esc
set tempo
stop
Strumming
There is no strumming pattern for this song yet. and get +5 IQ
intro

6/---------------------------------------------------------------
5/---------------------------------------------------------------
4/---------------------------------------------------------------
3/---------------------------------------------------------------
2/-----10---10---------10----10----------------10----------------
1/-----10----  8--10------8-----8---10--11--10-----8-------------


6/-------------------------------------------------------------
5/-------------------------------------------------------------
4/-------------------------------------------------------------
3/-------------------------------------------------------------
2/----10--10-------10--10--------------------------------------
1/----10-----8--10---8-----11-11-11-10-------------------------


D                              Fm
Mueren las luces, llueven gritos
G#m                        D
solo queda el eco triste
D            Fm         G#m            D
en las calles miserables de la soledad.
 D                  Fm
Es la hora de la muerte;
 G#m                      D      Fm D        D# D# D
es invierno en la fabrica.

No salgas esta noche
quizás no vuelvas,
el miedo aplasta la ciudad.
Alla lejos; calle abajo, es invierno,
es invierno en la fabrica.

Es invierno en la fabrica
Es invierno en la fabrica

La tarde anuncia la sombra de la ausencia
estas mas que nunca solo.
Alguien grabó su despedida en tu cara triste.
Es invierno en la fabrica.

Es invierno en la fabrica
El invierno en la fabrica.

Muere en las sombras tu fantasma
solo queda el eco triste
de las balas, de la sangre
de la guerra.
Es tiempo de la muerte:
es invierno en la fabrica

El invierno en la fabrica...


     D             Fm      G#m
6-   10            **       **
5-   12            8        11
4-   12            10       13
3-   11            10       13
2-   10            9        12
1-   10            8        11
Suggest correction
Give kudos to tab author, rate the tab!
1 2 3 4 5
comments
print report bad tab
guest
Wanna post a correction for this tab? Suggest correction