Oops, an error
Loading. Please wait.

Para El Día Después Tab

14 views 1 this week
no commentswrite comment
1 2 3 4 5
3 more votes to show rating
add to favorites
×
Save as Personal and add changes to this tab that will be seen only by you. Learn more ›
×
You can save this tab as Personal to edit and correct it or add notes. All changes will be seen only by you. Learn more »
save as personal
new!
launch autoscroll
font size
0
reset
how to read this tab
guitar tuner
Autoscroll
slow
fast
+/-
esc
set tempo
stop
Primer tab que subo, si tiene muchos errores avisen ok?

Intro

Em - G* - Em - G* x2

Em: X 7 9 9 8 7
G*: X 10 9 7 8 7
Bm: 7 9 9 7 7 7

Em                        Bm
Igual que tu recuerdo en mi, la lluvia afuera
Em              Bm
Golpean el cristal, la noche entera
Em          Bm
Una balacera, que no me alcanza
Em             Bm
Y yo quiero morir ahora
A     C  G         A                 B
Para mi, para vos, para el dia despues
               Riff
No quedara ya, nada mas, que buscarnos afuera
Riff
Y sera, lo que la lluvia quiera

Riff: D/-----------------------------------------
      A/-7-7-7-5-7---7-7-5-7-7-5-7---7-7-5-5-5-5-
      E/-----------------------------------------

      D/-----7-7-7-5-4---------------------------
      A/-5-5-----------5-------------------------
      E/-----------------------------------------

Em                        Bm
Igual que tu silencio en mi, el trueno espera
Em                 Bm
La mejor manera de atormentar afuera
Em              Bm
Y no cae una gota, que no se anime
Em              Bm
A balearme con tu recuerdo
A     C  G         A                 B
Para mi, para vos, para el dia despues
               Riff
No quedara ya, nada mas, que buscarnos afuera
Riff
Y sera, lo que la lluvia quiera

"Solo"

g/-4(x16)-----------------------------------------
D/--------4(x16)-5(x8)-2(x8)-4(x8)-5(x4)-7(x4)----
A/------------------------------------------------

g/-------------------------------------------------
D/-9(x8)-7(x4)-5(x4)-4(x8)-7(x4)-5(x4)-2(x8)-5(x4)-
A/-------------------------------------------------

g/-------------------------------------------------------
D/-4(x4)-------------------------------------------------
A/-------5(x8)-7(x4)-3(x4)-------------------------------

g/-------------------------------------------------------
D/-7-5-7-5-7-5-7/s8-8-8--9-9-9-9-9-9-999-----------------
A/-5-3-5-3-5-3-5/s6-6-6--7-7-7-7-7-7-777-----------------

g/-----------------------2-2-2-2-2-2--2-2-2-2-2-2--------
D/-7-5-7-5-7-5-7/s8-8-8--2-2-2-2-2-2--2-2-2-2-2-2--------
A/-5-3-5-3-5-3-5/s6-6-6--0-0-0-0-0-0--0-0-0-0-0-0--------

g/-----------------------15s/16-16-16-16-15s/16-16-16-16-
D/-7-5-7-5-7-5-7/s8-8-8--13s/14-14-14-14-13s/14-14-14-14-
A/-5-3-5-3-5-3-5/s6-6-6----------------------------------

g/-10s/11-11-11-11-11-11-11-10s/11-11-11-11-11-11-11-----
D/--8s/-9--9--9--9--9--9--9--8s/-9--9--9--9--9--9--9-----
A/-------------------------------------------------------


A     C  G         A                 B
Para mi, para vos, para el dia despues
               Riff
No quedara ya, nada mas, que buscarnos afuera
Riff
Y sera, lo que la lluvia quiera
Riff
Nada mas, que buscarnos afuera
Riff
Y sera, lo que la lluvia quiera

NOTA: En los dos ultimos Riff se hace todo de corrido,
      no hay stops ni silencios.

Gracias, y aguante LA TRAMPA LOCO!!!! Ayuden, a sacar
mas temas del disco nuevo!
Suggest correction
Give kudos to tab author, rate the tab!
1 2 3 4 5
comments
print report bad tab
guest
Wanna post a correction for this tab? Suggest correction