Oops, an error
Loading. Please wait.

Resurrección Tab

20 views 1 this week
no commentswrite comment
1 2 3 4 5
3 more votes to show rating
add to favorites
×
Save as Personal and add changes to this tab that will be seen only by you. Learn more ›
×
You can save this tab as Personal to edit and correct it or add notes. All changes will be seen only by you. Learn more »
save as personal
new!
launch autoscroll
font size
0
reset
how to read this tab
guitar tuner
Autoscroll
slow
fast
+/-
esc
set tempo
stop
Aca les dejo un temazo de la trampa ?resurreccion?.
en su epoca un poco mas heavy

h= ligado ascendente
P= ligado descendente
/= slide

ACAPELA

No siento dolor, no es una alucinación.
No siento dolor, no es una ilusión, no, no...
Tengo un hueco donde antes tuve el corazón.
Tengo un hueco donde antes tuve el corazón.

No siento latir, no hay sonido en mi interior.
No siento latir, no hay costillas, no hay calor.
Tengo un hueco donde antes tuve el corazón.
Tengo un hueco donde antes tuve el corazón.

No siento tu voz, no hay presencia alrededor.
No siento tu voz, no hay herida, no hay ardor.
Tengo un hueco donde antes tuve el corazón.
Tengo un hueco donde antes tuve el corazón


INTRO:

E|-6-4--3h4p3--3/4-3-|6-4--3h4p3--3/4-3--1-4/3-1----|
B|-------------------|----------------------------3-|
G|-------------------|------------------------------|
D|-------------------|------------------------------|
A|-------------------|------------------------------|
E|-------------------|------------------------------|

E|--------------------------------------------------------|
B|---3-1-------3-1----------------------------------------|
G|-3-----3---3-----3---1-0---------------1-0--------------|
D|--------------------------3-1---------------3-1---------|
A|-------------------------------1-1-0h1----------1-1-0h1-|
E|--------------------------------------------------------|

Intro x 2

Despues del intro hace esto:

G|-------------------------------|
D|-------------8-8-8-8-8-8-8-8-8-|
A|-5-----------8-8-8-8-8-8-8-8-8-|  x 4
E|---6-6h7p6-5-6-6-6-6-6-6-6-6-6-|
                     SIb

Tanto dolor G|-----------------------------|
            D|-------------8-8-8-8-8-8-8-8-|
            A|-6-7-6h7p6-4-8-8-8-8-8-8-8-8-|
            E|-------------6-6-6-6-6-6-6-6-|

Tanto dolor G|-----------------------------|
            D|-------------8-8-8-8-8-8-8-8-|
            A|-------------8-8-8-8-8-8-8-8-|
            E|-6-7-6h7p6-4-6-6-6-6-6-6-6-6-|

                     DO# DO  SI
Tanto dolor y luego naaa aaa daa G|---------------------|
                                 D|-------------8-8-8-8-|
                                 A|-5-----------8-8-8-8-|
                                 E|---6-6h7p6-5-6-6-6-6-|

Tanto dolor              |
Tanto dolor              | misma estructura q lo anterior
Tanto dolor y luego nada |Sib


Vacio sin sentidos mmmmm G|-------------------------------|
                         D|-------------8-8-8-8-8-8-8-8-8-|
                         A|-5-----------8-8-8-8-8-8-8-8-8-|
                         E|---6-6h7p6-5-6-6-6-6-6-6-6-6-6-|

SIb
Resurreccion G|-------------------------------|
             D|-------------8-8-8-8-8-8-8-8-8-|
             A|-5-----------8-8-8-8-8-8-8-8-8-|
             E|---6-6h7p6-5-6-6-6-6-6-6-6-6-6-|


SIb
Resurreccion G|-------------------------------|
             D|-------------8-8-8-8-8-8-8-8-8-|
             A|-5-----------8-8-8-8-8-8-8-8-8-|
             E|---6-6h7p6-5-6-6-6-6-6-6-6-6-6-|

SIb                 DO#   DO SI
Resusitando al corazoooo ooo on G|-----------------------|
                                D|-------------8-8-8-8-8-|
                                A|-5-----------8-8-8-8-8-|
                                E|---6-6h7p6-5-6-6-6-6-6-|

SIb
Vacio sin sentidos
Resurreccion, resurreccion

SIb                 DO#   DO SI
Resusitando al corazoooo ooo on G|-----------------------|
                                D|-------------8-8-8-8-8-|
                                A|-5-----------8-8-8-8-8-|
                                E|---6-6h7p6-5-6-6-6-6-6-|


E|-6---6---4---4---|
B|---6---6---6---6-|
G|-----------------| va alternando unas cuantas veces
D|-----------------|

                    DO#   DO SI
Resusitando al corazoooo ooo on G|---------------|
                                D|-------------8-|
                                A|-5-----------8-|
                                E|---6-6h7p6-5-6-|
Suggest correction
Give kudos to tab author, rate the tab!
1 2 3 4 5
comments
print report bad tab
guest
Wanna post a correction for this tab? Suggest correction