Oops, an error
Loading. Please wait.

Vendas En El Corazón Tab

13 views 1 this week
no commentswrite comment
1 2 3 4 5
3 more votes to show rating
add to favorites
launch autoscroll
font size
0
reset
how to read this tab
guitar tuner
×
Best way to learn
"Vendas En El Corazón"
Autoscroll
slow
fast
+/-
esc
set tempo
stop
Intro:
   Bm     G  A      F#m  Bm    G  A       F#m
E  --------------------2-0- | -----------0/2-2-2-0-0/2-2-2--0-
B  ---------3-------------- | ---------3----------------------
G  -4-2-4-2----4-2-4-2----- | -4-2-4-2------------------------ x2
D  -4-2-4-2----4-2-4-2----- | -4-2-4-2------------------------
A  ------------------------ | --------------------------------
E  ------------------------ | --------------------------------


1)

  Bm       G      A      F#        Bm
  ¿Hacia dónde vamos desde aquí?
  Las palabras sacuden mi cabeza al salir.
  ¿Dónde estás cuando te necesito más?
  No puedo alejarme de este dolor.


E  --------------------2-0- | -----------0/2-2-2-0-0/2-2-2--0-
B  ---------3-------------- | ---------3----------------------
G  -4-2-4-2----4-2-4-2----- | -4-2-4-2------------------------
D  -4-2-4-2----4-2-4-2----- | -4-2-4-2------------------------
A  ------------------------ | --------------------------------
E  ------------------------ | --------------------------------

1)
  Necesito salvar mi razón.
  Me asusta pensar que no hay nada,
  que no hay nada bajo tu mirada;
  que tenemos vendas en el corazón.
E  --------------------2-0- | -----------0/2-2-2-0-0/2-2-2--0-
B  ---------3-------------- | ---------3----------------------
G  -4-2-4-2----4-2-4-2----- | -4-2-4-2------------------------ X2
D  -4-2-4-2----4-2-4-2----- | -4-2-4-2------------------------
A  ------------------------ | --------------------------------
E  ------------------------ | --------------------------------

2)
   Bm      A    E       F#m         Bm
  ¿Y dónde estás cuando te necesito más?,
             C       F#m        Bm
  cuando la furia no deja pensar.
2)
  ¿Y dónde estás cuando te necesito más?,
  cuando ya es tarde para volver a empezar.

E  --------------------2-0- | -----------0/2-2-2-0-0/2-2-2--0-
B  ---------3-------------- | ---------3----------------------
G  -4-2-4-2----4-2-4-2----- | -4-2-4-2------------------------ X2
D  -4-2-4-2----4-2-4-2----- | -4-2-4-2------------------------
A  ------------------------ | --------------------------------
E  ------------------------ | --------------------------------

1)
  ¿Hacia dónde vamos desde aquí?
  Las palabras sacuden mi cabeza al salir.
  ¿Dónde estás cuando te necesito más?
  No puedo alejarme de este dolor.

E  --------------------2-0- | -----------0/2-2-2-0-0/2-2-2--0-
B  ---------3-------------- | ---------3----------------------
G  -4-2-4-2----4-2-4-2----- | -4-2-4-2------------------------
D  -4-2-4-2----4-2-4-2----- | -4-2-4-2------------------------
A  ------------------------ | --------------------------------
E  ------------------------ | --------------------------------

1)
  Necesito salvar mi razón.
  Me asusta pensar que no hay nada,
  que no hay nada bajo tu mirada;
  que tenemos vendas en el corazón.

E  --------------------2-0- | -----------0/2-2-2-0-0/2-2-2--0-
B  ---------3-------------- | ---------3----------------------
G  -4-2-4-2----4-2-4-2----- | -4-2-4-2------------------------ X2
D  -4-2-4-2----4-2-4-2----- | -4-2-4-2------------------------
A  ------------------------ | --------------------------------
E  ------------------------ | --------------------------------

2)  ¿Y dónde estás cuando te necesito más?,
  cuando la furia no deja pensar.
2)
  ¿Y dónde estás cuando te necesito más?,
  cuando ya es tarde para volver a empezar.

E  --------------------2-0- | -----------0/2-2-2-0-0/2-2-2--0-
B  ---------3-------------- | ---------3----------------------
G  -4-2-4-2----4-2-4-2----- | -4-2-4-2------------------------ X2
D  -4-2-4-2----4-2-4-2----- | -4-2-4-2------------------------
A  ------------------------ | --------------------------------
E  ------------------------ | --------------------------------

2)  ¿Y dónde estás cuando te necesito más?,
  cuando la furia no deja pensar.
2)
  ¿Y dónde estás cuando te necesito más?,
  cuando ya es tarde para volver a empezar.

Para mi hermana, y para todos los amantes del rock!!
Suggest correction
Give kudos to tab author, rate the tab!
1 2 3 4 5
comments
print report bad tab
guest
You may want to rate the tab now too:
select rating
Wanna post a correction for this tab? Suggest correction