Oops, an error
Loading. Please wait.

Yo Sé Quien Soy Tab

45 views 3 this week
no commentswrite comment
1 2 3 4 5
3 more votes to show rating
add to favorites
launch autoscroll
font size
0
reset
how to read this tab
guitar tuner
×
Best way to learn
"Yo Sé Quien Soy"
Autoscroll
slow
fast
+/-
esc
set tempo
stop
(VERSION FRENTE A FRENTE)
=======================

Vuelvo a mandar la tab completa de esta cancion en vivo,
no se por que la sacaron y dejaron solo la de los punteos...

. = Palm Mute
h = hammer on
p = pull off
/ = slide
v = vibrato
b = bend (estirar)
= armónico natural


INTRO (Riff 1)
======
A|------------------------|--------------------|
E|-0-0-0-3-0-3-5-5-5-6-5-3|-0-0-0-3-0-3-5-5-5-6|

A|------------------------|--------------------|
E|-0-0-0-3-0-3-5-5-5-6-5-3|-0-0-0-3-0-3-5-5-5-3|


Riff 2
======
D|------------------------5/7---------7/9-9|
A|-------------4/5--------3/5-5-5-555-5/7-7| X4
E|-0-000-0-0-0-2/3-3-3-3-3------------------|
   ...........     .......    .......

Yo se que el encierro mata al fin
pero ya no tengo donde ir
voy desgarrando la verdad
la carne del hueso voy a separar

D|--------7/9-9-|
A|-2------5/7-7-|
E|-0------------|

(RIFF 2)

Diente contra diente hasta doler
pero nunca nada que morder
mejor es desaparecer
que despertar muerto aca otra vez

E5  C5 D5       E5
Que yo se quien soy
E5  C5 D5       E5
Que yo se quien soy

(RIFF 1)

El hierro la carne atravesó
y el rojo del odio nos cubrió
la cabeza fría y  el rencor              | RIFF 3
sol y luna, luna, sol y aca matandonos   |

Riff 3
======
D|----------9-9--5p4h5p4h5p4h5p4--7-7---------|
A|----------7-7-------------------5-5--5-6-7-| X2
E|-555----------------------------------|

(RIFF 2) x2

En cada baldoza de ciudad
tumbas de gorriones pisaras
las estrellas ya no sirven mas | RIFF 3
me orienta mi frente y nada mas   |

E5  C5 D5       E5
Que yo se quien soy
E5  C5 D5       E5
Que yo se quien soy


1º SOLO (guitarra limpia)
=========================

E|-------------------------------------|
B|-12-12-10-8-8/10-8-7-8/7-8-10-10/12--|
G|-12-12-11-9-9/11-9-8-9/8-9-11-11/12--|
D|-------------------------------------|
A|-------------------------------------|
E|-------------------------------------|

E|-----------------------------------------------|
B|-----------------------------------------------|
G|-----------11/12-11--12--11h12p11--9-8-9v------|
D|---------12------------------------------------|
A|-10-12-13--------------------------------------|
E|-----------------------------------------------|

E|-----12-14-15-14-12--15-14-------------|
B|---12---------------------15--------12-|
G|-12-------------------------14p12h14---|
D|---------------------------------------|
A|---------------------------------------|
E|---------------------------------------|

E|--------------------------------------------|
B|---12-----10----10-10--8/10--8---7---8------|
G|-12--11h12--11--11-11--9/11--9---8---9------|
D|--------------------------------------------|
A|--------------------------------------------|
E|--------------------------------------------|

(Rasgeos) Em - A - Em - A


2º SOLO (guitarra distorsionada)
================================

BASE: E - A (X4) / Riff 2 (x2) (en version de estudio)

E|-12---------------------------------|
B|-15b(17)---(17)r15---12-15-12-------|
G|------------------------------14-16-|
D|------------------------------------|
A|------------------------------------|
E|------------------------------------|

E|---------12-14-15-14h15p14-12-14-12/9/7-9-10-12-14-15-----|
B|-12-14-15---------------------------------------------14v-|
G|----------------------------------------------------------|
D|----------------------------------------------------------|
A|----------------------------------------------------------|
E|----------------------------------------------------------|

E|------12------------------------12-----------------------------------|
B|--12--12-12--12--12-12--12--12--12--12--12---12----------------13-13-|
G|--14b----14b-14b----14b-14b-14b-----14b-14b--14br-12-14--12-14b------|
D|-------------------------------------------------------14------------|
A|---------------------------------------------------------------------|
E|---------------------------------------------------------------------|

E|-----------------------------------------------------------------------|
B|-----------------------------------------------------------------------|
G|-(16)r14-12-14-12h14p12--12--------------------------------------------|
D|-----------------------14--14-12-14-12--12------------------12---------|
A|--------------------------------------14--14-12-14-12--12-14--12h13h14-|
E|-----------------------------------------------------15----------------|


Al final hace una serie de rasgueos que son
Em - D - C - D - Em
Em - G - D - Em
Em - C - D - Em (x2)
Suggest correction
Give kudos to tab author, rate the tab!
1 2 3 4 5
comments
print report bad tab
guest
You may want to rate the tab now too:
select rating
Wanna post a correction for this tab? Suggest correction