Oops, an error
Loading. Please wait.

Dos Días Nada Más Chords

13 views 1 this week
no commentswrite comment
1 2 3 4 5
3 more votes to show rating
add to favorites
launch autoscroll
font size
0
reset
transpose
0
reset
display chords
guitar tuner
Autoscroll
slow
fast
+/-
esc
set tempo
stop
Strumming
There is no strumming pattern for this song yet. and get +5 IQ
TRANSFER: Dos dias nada mas
@Tab by Warrior


----------------------------
AHi va esa peaso kancion de los Transfer k es perfecta pa ponertelae
el koxe un viernes x la tarde
al salir del kurro jejej Se toka kon ritmo de rocanrol y el solo losakais de la pentatonica de A


Intro
-----
G A D

Estrofa (en las estrofas, la otra guitarra toka los fraseos de kada
akorde k he puesto
abajo tokados kon ritmillo rocanrolero):
--------------

A D
Eskuxando las klases k le da el profesor
E A
los oidos en klase los pensamientos no
A D
Harta de tanto libro de tanta leccion
E A
solo el miedo al examen krea resignacion

Estribillo:
----------

B G
LLeva el fin de semana y te sientes mejor
D A
el fuego de tus venas se llama r´n´r
B G
te vistes a tu aire lista para empezar
D A
y olvidas el kolegio dos dias nada mas


G A D (kon punteo1)
Alegria kolegas y poko mas
G A D(kon punteo1)
pero te sobra para kontinuar
G A D(kon punteo1)
y si al infierno tienes k bajar
G A D(kon punteo1)
si es en buska de rock tu sabes k bajaras

Solo:
-----

Fraseo de A:

E|-------------------|
B|-------------------|
G|-------------------|
D|-7-7--9--7-10-7-9-7|
A|-7-7--9--7-10-7-9-7|
E|-------------------|

Fraseo de D:

E|-------------------|
B|-------------------|
G|-7-7--9--7-10-7-9-7|
D|-7-7--9--7-10-7-9-7|
A|-------------------|
E|-------------------|

Fraseo de E:

E|-------------------|
B|-------------------|
G|-------------------|
D|-2-2--4--2-5--2-4-2|
A|-2-2--4--2-5--2-4-2|
E|-------------------|

Punteo1:
-----
E|-----------------|
B|-----3-3-----3-3-|
G|-2-4-----2-4-----|
D|-----------------|
A|-----------------|
E|-----------------|


Si no te aklaras kon algo,tienes dudas,sugerencias,krees ke esta mal
o simplemente te apeteze enviar un e-mail aki estoy



o visita la sekzion RockK ZOne de mi peich


¡Hasta otra!
Warrior_
Suggest correction
Give kudos to tab author, rate the tab!
1 2 3 4 5
comments
print report bad tab
guest
You may want to rate the tab now too:
select rating
Wanna post a correction for this tab? Suggest correction