Oops, an error
Loading. Please wait.

Invocación Y Conjuración Tab

11 views 1 this week
no commentswrite comment
1 2 3 4 5
3 more votes to show rating
add to favorites
launch autoscroll
font size
0
reset
how to read this tab
guitar tuner
Autoscroll
slow
fast
+/-
esc
set tempo
stop
Help us to improve Ultimate-Guitar.com Take our survey!
×
intro: (0:18)
riff1
|--------------------------------|--------------------------------|
|--------------------------------|--------------------------------|
|--------------------------------|--------------------------------|
|-4-4-4-4\5-5-5-5\4-4-4-4--7-6-7-|-4-4-4-4\5-5-5-5\4-4-4-4--4-2---|x4
|--------------------------5-4-5-|--------------------------2-0---|
|--------------------------------|--------------------------------|

riff2 de los versos
|----------------|---------------|---------------|----------------|
|----------------|---------------|---------------|----------------|
|----------------|---------------|---------------|----------------|
|--4-4-4-5-4-2-4-|-4-4-4-5-4-2-4-|-2-2-2-3-2-0-2-|-2-2-2-3-2-0-2--|x2
|----------------|---------------|---------------|----------------|
|----------------|---------------|---------------|----------------|

riff3 coro
|------------------|-------------------|
|------------------|-------------------|
|------------------|-------------------|
|------------------|-------------------|x2
|---12------7------|---12-----7--5-7---|
|---10------5------|---10-----5--3-5---|

riff1
|--------------------------------|--------------------------------|
|--------------------------------|--------------------------------|
|--------------------------------|--------------------------------|
|-4-4-4-4\5-5-5-5\4-4-4-4--7-6-7-|-4-4-4-4\5-5-5-5\4-4-4-4--4-2---|x2
|--------------------------5-4-5-|--------------------------2-0---|
|--------------------------------|--------------------------------|

riff2
|----------------|---------------|---------------|----------------|
|----------------|---------------|---------------|----------------|
|----------------|---------------|---------------|----------------|
|--4-4-4-5-4-2-4-|-4-4-4-5-4-2-4-|-2-2-2-3-2-0-2-|-2-2-2-3-2-0-2--|x2
|----------------|---------------|---------------|----------------|
|----------------|---------------|---------------|----------------|

coro riff4
|------------------|----------------|
|------------------|----------------|
|------------------|----------------|
|------------------|----------------|x2
|---12------7------|---12-----7----7|
|---10------5------|---10-----5----7|


este riff5 acompaña a el solo de los teclados
|------------------------------------------------|
|------------------------------------------------|
|------------------------------------------------|
|------------------------------------------------|
|--7-7-9-10-9-7--7-10-9-7-10-9-7-10-9-7-7--5--7--|x8
|--7-------------7----------------------5--3--5--|
coro riff5
|-------------------------|
|-------------------------|
|-------------------------|
|--------7-6--------------|
|-12--7--5-4-12--7--5--7--|x2
|-10--5------10--5--3--5--|

riff1
|--------------------------------|--------------------------------|
|--------------------------------|--------------------------------|
|--------------------------------|--------------------------------|
|-4-4-4-4\5-5-5-5\4-4-4-4--7-6-7-|-4-4-4-4\5-5-5-5\4-4-4-4--4-2---|x2
|--------------------------5-4-5-|--------------------------2-0---|
|--------------------------------|--------------------------------|

riff2
|----------------|---------------|---------------|----------------|
|----------------|---------------|---------------|----------------|
|----------------|---------------|---------------|----------------|
|--4-4-4-5-4-2-4-|-4-4-4-5-4-2-4-|-2-2-2-3-2-0-2-|-2-2-2-3-2-0-2--|x2
|----------------|---------------|---------------|----------------|
|----------------|---------------|---------------|----------------|

riff5
|-------------------------|
|-------------------------|
|-------------------------|
|--------7-6--------------|
|-12--7--5-4-12--7--5--7--|x2
|-10--5------10--5--3--5--|

riff1
|--------------------------------|--------------------------------|
|--------------------------------|--------------------------------|
|--------------------------------|--------------------------------|
|-4-4-4-4\5-5-5-5\4-4-4-4--7-6-7-|-4-4-4-4\5-5-5-5\4-4-4-4--4-2---|x2
|--------------------------5-4-5-|--------------------------2-0---|
|--------------------------------|--------------------------------|

|--------------------------------|----|
|--------------------------------|----|
|--------------------------------|----|
|-4-4-4-4\5-5-5-5\4-4-4-4--7-6-7-|----|
|--------------------------5-4-5-|-9--|
|--------------------------------|-7--|coda

eso es todo epero les guste alguna duda o arreglo
escriban ami correo trans_acosta666@ espero pron tener
rola de invasores por sierto el solo del teclado tabien lo tengo en guitarra
pero ese pidanlo por correo para darles el efecto del teclado.
chido transmetal sigue asi
lenoz fiel admirador de transmetal y fan de juan partida
sigue asi brother ese verga
Suggest correction
Give kudos to tab author, rate the tab!
1 2 3 4 5
comments
print report bad tab
guest
You may want to rate the tab now too:
select rating
Wanna post a correction for this tab? Suggest correction