Oops, an error
Loading. Please wait.

Letanias De Satán Tab

version 2
version 2

Whole song

85 views 1 this week
no commentswrite comment
1 2 3 4 5
3 more votes to show rating
add to favorites
launch autoscroll
font size
0
reset
how to read this tab
guitar tuner
×
Best way to learn
"Letanias De Satán"
Autoscroll
slow
fast
+/-
esc
set tempo
stop
C#
F#
B
E
G#
C#


----------------------------------------------
----------------------------------------------
----------------------------------------------
-------------4-5---4545454--------------------
-------7-6-7-----7---------6------------------
-0---7----------------------------------------

Oh, tú, el más sabio y el más hermoso de los ángeles, /
Dios traicionado por la suerte y privado de toda alabanza.
Principe del exilio, / que padece injusticia, y que, aunque 
vencido, te levantas más fuerte.

-----------------------------------------------------------------------------
-----------------------------------------------(2x)--------------------------
--8-/-9-xxxx---8-9--12----8-/-9-xxxx--8-9------------------------------------ (1A)
--8-/-9-xxxx---8-9--12----8-/-9-xxxx--8-9--8-----------------4-5---454545----
--6-/-7-xxxx---6-7--10----6-/-7-xxxx--6-7--8-----------7-6-7-----7--------6--
-------------------------------------------6---------7-----------------------

Tú que lo sabes todo / rey de lo subterráneo, / 
familiar curador de la angustia humana.
 / Tú que, aún a los leprosos y a los parias 
malditos despiertas, por amor, el gusto al Paraíso. /
Oh, Tú que de la muerte / Tu vieja y fiel amante / engendras
la esperanza / ¡qué loca encantadora! /  Tú que das al 
proscrito esa mirada, calma que, entorno a un patíbulo
condena a todo un pueblo.

---------------------------------------------------
---------------------------------------------------
---------------------------------------------------
--2-2---9-8--(3x)----------4-5---454545------------ (2A)
--2-2---9-8----------7-6-7-----7--------6----------
--0-0---7-6--------7-------------------------------

 'Oh Satan entragame al mundo'


  
  (1A)

/ Tú que en qué rinconesde tierras envidiadas encierra
el Dios celoso /las piedras más preciadas. / Tú, cuya
mirada conoce los profundos arsenales donde duerme
sepultado / el pueblo de los metale. / Tú, cuya larga
mano oculta los precipicios al sonámbulo que camina
errante el borde de los edificios. / Tú que magníficamente
suavizas los duros huesos del borracho empedernido pisado
por los caballos.

-------------------------------------------(2x)
-----------------------------------------------
----------------------------------------------- (3A)  
-----------------------------------------------
------------0-2-/-7-5-2-222--------------------
--0-2-3--33-----------------3-2-0--------------

-------------------------------------------------------------(2x)
----------------------------------------------------------------
----------------2xx--4xxx-/--9xxx--7xx--4xxxxxx-----------------
--2xx-4x-5xxxx--2xx--4xxx-/--9xxx--7xx--4xxxxxx--5x-4x-2xxx-----
--2xx-4x-5xxxx--0xx--2xxx-/--7xxx--5xx--2xxxxxx--5x-4x-2xxx-----
--0xx-2x-3xxxx-----------------------------------3x-2x-0xxx-----


-------------------------------------------------
-------------------------------------------------
-------------------------------------------------
-2x-x-x-x--2x-x-x--9-8---------------------------
-2x-x-x-x--2x-x-x--9-8---------------------------
-0x-x-x-x--1x-x-x--7-6---------------------------
 
Gloria y loor ati, Satán,/ en las alturas del cielo, donde
reinas, y en las profundidades del infierno, donde, vencido
sueñas en silencio. / Haz que mi alma un día, bajo el árbol de la
Ciencia, cerca de ti repose, / cuando sobre tu frente, igual
que tu Templo nuevo, esparza su remaje.


----------------------------------------
----------------------------------------
----------------------------------------
----6/12--------11-8-7-6----------------
--7------9-/-13-------------------------
----------------------------------------

(solo)


(3A)
  'Oh Satán entrganos Mexico' 

 (1A)

Tú que, paraconsolar el hombre frágil que sufre, / nos enseñas
a mezclar el salitre y el azufre / Tú que imprimes tu marca, / oh
cómplice sutil, en la frente del creso / despiadado y vil. / Tú 
que pones en los ojos y en el corazón de las jóvenes / el culto 
de las llagas y el amor por los andrajos. 

(2A)

Báculo de exiliados lampara de inventores / confesor de colgados
y de conspiradores. / Padre adoptivo de aquellos que en su negra
cólera arrojó del Paraíso terrenal al Dios Padre.

Final


-------
-------
--9----
--9----
--7----
-------

'Oh Satán entreganos Mexico'
Suggest correction
Give kudos to tab author, rate the tab!
1 2 3 4 5
comments
print report bad tab
guest
You may want to rate the tab now too:
select rating
Wanna post a correction for this tab? Suggest correction