Oops, an error
Loading. Please wait.

México Bárbaro Tab

version 1
version 1

Whole song

Interactive

112 views 1 this week
no commentswrite comment
1 2 3 4 5
3 more votes to show rating
add to favorites
launch autoscroll
font size
0
reset
how to read this tab
guitar tuner
Autoscroll
slow
fast
+/-
esc
set tempo
stop
Help us to improve Ultimate-Guitar.com Take our survey!
×
Hola!!!
aki les dejo la tab correguida, espero cea de su agrado.

Pd.:Espero su visita en mi blog:
     

Pd2.:las cuerdas estan en un tono abajo.

4/4
D|-----||-----------------------|----------------------|
A|-----||-----------------------|----------------------|
F|-----|O-----------------------|----------------------|
C|-----|O-----------------------|------------3h2h0-----|
G|-5-3-||-2---------------------|------------------3h2-|
D|-3-1-||-0--0-3-2-0-0--0-3-2-0-|-0--0-3-2-0-----------|

|-----------------------|----------------||---|
|-----------------------|----------------||---|
|-----------------------|----------------O|---|
|-----------------------|----------------O|-2-|
|-----------------------|------------5-7~||-2-|
|-0--0-3-2-0-0--0-3-2-0-|-0--0-3-2-0-3---||-0-|

6/4                                4/4
|--------------------------------|-------------|---------------------|
|--------------------------------|-------------|---------------------|
|--------------------------------|-------------|---------------------|
|--------------------------------|-------------|---------------------|
|--------------------------------|-4-3---------|---------------------|
|-0-0-2h3h2~0-0-2h3h2~-0-0-2h3h2~|-----5-4h5h4-|-0-0-2h3h2~0-0-2h3h2~|

                  6/4 verso 1                      4/4
|---------------||--------------------------------|-------------|
|---------------||--------------------------------|-------------|
|---------------|O--------------------------------|-------------|
|---------------|O--------------------------------|-------------|
|-----------5-7~||--------------------------------|-4-3---------|
|-0-0-2h3h2~3---||-0-0-2h3h2~0-0-2h3h2~-0-0-2h3h2~|-----5-4h5h4-|

                                        x4
|---------------------|---------------||
|---------------------|---------------||
|---------------------|---------------O|
|---------------------|---------------O|
|---------------------|-----------5-7~||
|-0-0-2h3h2~0-0-2h3h2~|-0-0-2h3h2~3---||

  coro
|-----|---------|-----|-----------------------|-----|---------|-----|
|-----|---------|-----|-----------------------|-----|---------|-----|
|-----|---------|-----|-----------------------|-----|---------|-----|
|-2-5-|-4-------|-9-7-|-----------------------|-2-5-|-4-------|-9-7-|
|-2-3-|-2-2-2-2-|-7-5-|-----------------------|-2-3-|-2-2-2-2-|-7-5-|
|-0---|---0-0-0-|-----|-0-0-0-0-0-0-0-0-0-0-0-|-0---|---0-0-0-|-----|

  6/4                              4/4
|--------------------------------|-------------|---------------------|
|--------------------------------|-------------|---------------------|
|--------------------------------|-------------|---------------------|
|--------------------------------|-------------|---------------------|
|--------------------------------|-4-3---------|---------------------|
|-0-0-2h3h2~0-0-2h3h2~-0-0-2h3h2~|-----5-4h5h4-|-0-0-2h3h2~0-0-2h3h2~|

                  6/4 verso 2                       4/4
|---------------||--------------------------------|-------------|
|---------------||--------------------------------|-------------|
|---------------|O--------------------------------|-------------|
|---------------|O--------------------------------|-------------|
|-----------5-7-||--------------------------------|-4-3---------|
|-0-0-2h3h2~3-5-||-0-0-2h3h2~0-0-2h3h2~-0-0-2h3h2~|-----5-4h5h4-|

                                        x4
|---------------------|---------------||
|---------------------|---------------||
|---------------------|---------------O|
|---------------------|---------------O|
|---------------------|-----------5-7~||
|-0-0-2h3h2~0-0-2h3h2~|-0-0-2h3h2~3---||

  coro
|-----|---------|-----|-----------------------|-----|---------|-----|
|-----|---------|-----|-----------------------|-----|---------|-----|
|-----|---------|-----|-----------------------|-----|---------|-----|
|-2-5-|-4-------|-9-7-|-----------------------|-2-5-|-4-------|-9-7-|
|-2-3-|-2-2-2-2-|-7-5-|-----------------------|-2-3-|-2-2-2-2-|-7-5-|
|-0---|---0-0-0-|-----|-0-0-0-0-0-0-0-0-0-0-0-|-0---|---0-0-0-|-----|

 Mexico Barbaro!!!                 x4
||---------------|---------------||
||---------------|---------------||
|O---------------|---------------O|
|O-------------3-|---------------O|
||-2-2-2-2-3-5-3-|---------------||
||-0-0-0-0-1-3-1-|---------------||

                                            3/4
||-------------|-------------|------------|---------||
||-------------|-------------|------------|---------||
|O-------------|-------------|------------|---------O|
|O-------------|-------------|------------|---------O|
||-----------7~|-----------7~|----------7~|-5-4-----||
||-0-0-0-0-5---|-0-0-0-0-5---|-0-0-0-05---|-----6-4-||

 Mexico Barbaro!!!                 x4
||---------------|---------------||
||---------------|---------------||
|O---------------|---------------O|
|O-------------3-|---------------O|
||---------3-5-3-|---------------||
||-0-0-0-0-1-3-1-|---------------||

                                           2/4
|-------------|-------------|------------|---------|
|-------------|-------------|------------|---------|
|-------------|-------------|------------|---------|
|-------------|-------------|------------|---------|
|-----------7~|-----------7~|----------7~|-5-4-----|
|-0-0-0-0-5---|-0-0-0-0-5---|-0-0-0-05---|-----6-4-|

  4/4  solo
|-----|-15h12----15h12----15h12----17h12----|
|-----|-------12-------12-------12-------12-|
|-----|-------------------------------------|
|-----|-------------------------------------|
|-5-3-|-------------------------------------|
|-3-1-|-------------------------------------|

|15h12----15h12----15h12----17h12----|-15h12----15h12----15h12----17h12---|
|------12-------12-------12-------12-|-------12-------12-------12-------12|
|------------------------------------|------------------------------------|
|------------------------------------|------------------------------------|
|------------------------------------|------------------------------------|
|------------------------------------|------------------------------------|

|-15-12----------|-------------|-----|---------------|----------|
|-------13-12~13~|-------------|-----|---------------|----------|
|----------------|12~~12h14h12-|-11B~|-11-9-7--------|----------|
|----------------|-------------|-----|--------10-7-9-|-7--------|
|----------------|-------------|-----|---------------|---10-9-7~|
|----------------|-------------|-----|---------------|----------|

|-x-12h14-17h15h1412/15-19h17h1512/14-17h15h1412/|15-19h17h1512/14-
|---------------------------------------------------|------------------
|---------------------------------------------------|------------------
|---------------------------------------------------|------------------
|---------------------------------------------------|------------------
|---------------------------------------------------|------------------

17h15h1412/15-19h17h1512/14|17h15h1412/15/19h17h15/17h20-17----17----|
-----------------------------|---------------------------------20----20-|
-----------------------------|------------------------------------------|
-----------------------------|------------------------------------------|
-----------------------------|------------------------------------------|
-----------------------------|------------------------------------------|

|------------------------|-------------------------------------|
|-20-17----17------------|-------------------------------------|
|-------19----19----x/17-|-21-19-17-21-19-17-19-17----17-------|
|----------------17~~----|-------------------------19----19-17h|
|------------------------|-------------------------------------|
|------------------------|-------------------------------------|

|----------------------------|---|-----------|
|----------------------------|-x-|-----------|
|--------------------------x-|-7-|---------5-|
|19h17h19h17h19h17h19-17~B~0-|---|-x---------|
|----------------------------|---|-0-7h9h7---|
|----------------------------|---|-----------|

  coro
|-----|---------|-----|-----------------------|-----|---------|-----|
|-----|---------|-----|-----------------------|-----|---------|-----|
|-*---|---------|-----|-----------------------|-----|---------|-----|
|---5-|-4-------|-9-7-|-----------------------|-2-5-|-4-------|-9-7-|
|---3-|-2-2-2-2-|-7-5-|-----------------------|-2-3-|-2-2-2-2-|-7-5-|
|-----|---0-0-0-|-----|-0-0-0-0-0-0-0-0-0-0-0-|-0---|---0-0-0-|-----|

  Mexico Barbaro!!!                x4
||---------------|---------------||
||---------------|---------------||
|O---------------|---------------O|
|O-------------3-|-------------3-O|
||-2-2-2-2-3-5-3-|-2-2-2-2-3-5-3-||
||-0-0-0-0-1-3-1-|-0-0-0-0-1-3-1-||

                 x8
||-0-----12-|--||
||-0--12----|--||
|O-0--------|--O|
|O-2--------|--O|
||-2--------|--||
||-0--------|--||

  riff
||-------------------|-------------------|| |---|
||-------------------|-------------------|| |---|
|O-------------------|-------------------O| |---|
|O-------------------|-------------------O| |-2-|
||-------------7-9-7~|-------------7-9-7~|| |-2-|
||-0-0-0-0-0-0-------|-0-0-0-0-0-0-------|| |-0-|
Suggest correction
Give kudos to tab author, rate the tab!
1 2 3 4 5
comments
print report bad tab
guest
You may want to rate the tab now too:
select rating
Wanna post a correction for this tab? Suggest correction