Oops, an error
Loading. Please wait.

Para Llorar Por Tí Tab

by Tranzas
14 views 1 this week
no commentswrite comment
1 2 3 4 5
3 more votes to show rating
add to favorites
launch autoscroll
font size
0
reset
how to read this tab
guitar tuner
×
Best way to learn
"Para Llorar Por Tí"
Autoscroll
slow
fast
+/-
esc
set tempo
stop
Hola a todos, esta es mi primer transcripción, y nada menos
con una gran canción del grupo Tranzas...

Sugerencias y/o comentarios por favor a mi correo.

Nota: Le ponen capo en el 1er traste para toda la canción.


Éste es el punteo que sale al principio:


e|-----1--0-------------------0|--1--0--------5-----0---|
B|-------------3--2--------2---|-------3--2-------2-----|
G|-------------------0---------|-----------------0------|
D|---------------------2-------|------------------------|
A|-----------------------------|------------------------|
E|-----------------------------|------------------------|

e|---1--0--------5---------------------1----------------|
B|---------3--2-----2--3--2---------2-------------------|
G|----------------------------0----0--------------------|
D|-------------------------------2----------------------|
A|------------------------------------------------------|
E|------------------------------------------------------|


C         C*   C     E7 Emmaj7 E7
Desde que entendí
                       Am7  Ammaj7 Am7  G7
Que en verdad ya no me amas
                          F
Que por más que ponga el mundo
                                 G   G7
a tus pies en verdad no sientes nada


C          C*   C   E7 Emmaj7 E7
Desde que entendí
                       Am7  Ammaj7 Am7  G7
Que lo nuestro ya se acaba
                       F
Que aunque decidieras hoy regresar
                        G   G7
Siento un frío en tu mirada


Am                    C
Que sólo me queda pensar
                     F
En los muebles y en cosas que
Hay que dividir
Dm
Buscar abogados y leyes
               G
Que destruyan todo
                    G7
Desde que lo entendí...


(Coro)
   C            C* C
Yo Para llorar
               E7 Emmaj7 E7
No necesito ni pensar en ti
                            Am7  Ammaj7 Am7
Una palabra, una frase un error

Que me destruye
          F                 G7
Desde el día en que lo entendí


C          C* C
Para llorar
                           E7 Emmaj7 E7
No necesito que me hagas sufrir
Porque hasta el viento me grita
      Am7  Ammaj7 Am7
Que nunca serás mía
          F                 G7
Desde el día en que lo entendí
C                Am
Yo para llorar...para llorar
             F    G
No necesito más...

PARA LLORAR POR TI...
PARA LLORAR POR TI


e|-----1--0-------------------0|--1--0--------5-----0---|
B|-------------3--2--------2---|-------3--2-------2-----|
G|-------------------0---------|-----------------0------|
D|---------------------2-------|------------------------|
A|-----------------------------|------------------------|
E|-----------------------------|------------------------|

e|---1--0--------5---------------------1----------------|
B|---------3--2-----2--3--2---------2-------------------|
G|----------------------------0----0--------------------|
D|-------------------------------2----------------------|
A|------------------------------------------------------|
E|------------------------------------------------------|


C         C*   C     E7 Emmaj7 E7
Desde que entendí
                       Am7  Ammaj7 Am7  G7
Que no importa lo que haga
                       F
Tal vez Dios ya no me quiso escuchar
                         G   G7
Aunque tanto, tanto le rogaba


Am                    C
Que sólo nos queda pensar
                     F
En los muebles y en cosas que
Hay que dividir
Dm
Buscar abogados y leyes
               G
Que destruyan todo
                    G7
Desde que lo entendí...
 (Coro)
C            C* C
Yo Para llorar
                E7 Emmaj7 E7
No necesito ni pensar en ti
                           Am7  Ammaj7 Am7
Una palabra, una frase un error
Que me destruye
          F                 G7
Desde el día en que lo entendí


C           C* C
Para llorar
                              E7 Emmaj7 E7
No necesito que me hagas sufrir
Porque hasta el viento me grita
      Am7  Ammaj7 Am7
Que nunca serás mía
          F                 G7
Desde el día en que lo entendí


C                Am
Yo para llorar...para llorar
             F    G
No necesito más...
PARA LLORAR POR TI..


e|-----1--0-------------------0|--1--0--------5-----0---|
B|-------------3--2--------2---|-------3--2-------2-----|
G|-------------------0---------|-----------------0------|
D|---------------------2-------|------------------------|
A|-----------------------------|------------------------|
E|-----------------------------|------------------------|

PARA LLORAR POR TI...


e|---1--0--------5---------------------1----------------|
B|---------3--2-----2--3--2---------2-------------------|
G|----------------------------0----0--------------------|
D|-------------------------------2----------------------|
A|------------------------------------------------------|
E|------------------------------------------------------|


EmMaj7-021003
Am7-002010
AmMaj7-002013

Nota: Donde dice "C*" es la nota Do Mayor pero con
un arreglo poniendo el meñique en el 3er traste, primera cuerda.

(Tory, niña bella...desde el día en que lo entendí...)
Suggest correction
Give kudos to tab author, rate the tab!
1 2 3 4 5
comments
print report bad tab
guest
You may want to rate the tab now too:
select rating
Wanna post a correction for this tab? Suggest correction