Oops, an error
Loading. Please wait.

Agárrala Tab

16 views 1 this week
no commentswrite comment
1 2 3 4 5
3 more votes to show rating
add to favorites
launch autoscroll
font size
0
reset
how to read this tab
guitar tuner
×
Best way to learn
"Agárrala"
Autoscroll
slow
fast
+/-
esc
set tempo
stop
INTRO:

----------------------------------12----------
----10-10-12-13----13-12-10-12-13-------------
----------------------------------------------
----------------------------------------------
----------------------------------------------
----------------------------------------------


----------------------------------------------
----10-10-12-13----13-12-10-12-13-12----------
----------------------------------------------
----------------------------------------------
----------------------------------------------
----------------------------------------------


----------------------------------------------
----8-8-10-12----12-10-8-10-12-10-------------
----------------------------------------------
----------------------------------------------
----------------------------------------------
----------------------------------------------


----------------------------------------------
----8-8-8-10-12----8--10--8-------------------
----------------------------------------------
----------------------------------------------
----------------------------------------------
----------------------------------------------

CORO:


  Agarrala,      Pegala,   Azotala,  Pegala
----------------------------------------------
--10-13-12-13----13-12-10--13-12-10--13-12-10-
----------------------------------------------
----------------------------------------------
----------------------------------------------
----------------------------------------------


  Sacala A Bailar   Que Va A Toa
----------------------------------------------
--13-12-10-12-13----10-13-12-10---------------
----------------------------------------------
----------------------------------------------
----------------------------------------------
----------------------------------------------


  Pegala,   Azotala,  Agarrala
----------------------------------------------
--13-12-10--13-12-10--13-12-10----------------
----------------------------------------------
----------------------------------------------
----------------------------------------------
----------------------------------------------

Que Ella Va,   Oaaa
----------------------------------------------
--10--8--8----13--10--------------------------
----------------------------------------------
----------------------------------------------
----------------------------------------------
----------------------------------------------


Espero Que Les Haya Servido ;)  Suerte ! :D
Suggest correction
Give kudos to tab author, rate the tab!
1 2 3 4 5
comments
print report bad tab
guest
You may want to rate the tab now too:
select rating
Wanna post a correction for this tab? Suggest correction