Oops, an error
Loading. Please wait.

Enamorado De Un Ángel Tab

version 1
version 1

Whole song

1,158 views 12 this week
no commentswrite comment
1 2 3 4 5
3 more votes to show rating
add to favorites
launch autoscroll
font size
0
reset
how to read this tab
guitar tuner
×
Best way to learn
"Enamorado De Un ángel"
Autoscroll
slow
fast
+/-
esc
set tempo
stop
ESTA ES UNA CORRECION DE LAS VERSIONES ANTERIORES 
QUE SI QUIERES PUEDES VERLAS SON ALGO DIFERENTES
TE ASEGURO QUE COMO ESTA NO ENCONTRARAS OTRA 

Tema: Enamorado de un Angel
Interprete: Trémolo

Transcrito por: Juan Pablo Condezo (jpcondezo3@
Fecha: 10 de Enero del 2004
Procedencia: Huancavelica - Peru


Explicacion de la Tabladura
(x)= ghost note (puedes obviar esta nota)
h=   hammer on 
p=   pull-off
/=   slide up
\=   slide down
^=   bend full
B=   bend half
br^= bend´n Full 
V~=  vibrato

                 ACORDES
   A           E          F#m          D 
\------/   \------/    \------/    \------/
 ||||||     |||o||      ||||||      |||||| 
 ||ooo|     |oo|||      oooooo      |||o|o 
 ||||||     ||||||      ||||||      ||||o|
 ||||||     ||||||      |oo|||      ||||||


   A5         E5           F#5         D5 
 \---xxx/   \---xxx/    \---xxx/    \x---xx/
V o|||||     ||||||      ||||||    V |o|||| 
  ||||||     |oo|||      o|||||      |||||| 
  |oo|||     ||||||      ||||||      ||oo||
  ||||||     ||||||      |oo|||      ||||||


                  ENAMORADO DE UN ANGEL
                        Tremolo
                        Peru

Afinacion: E B G D A E  (Normal)
 

Intro: (arpegios con palm mutting)

A   E   F#m   D  (x2)


(0:19)
              A               E               F#m
e--------10-9v~~--10-12-10h12br^-10-9-9v~~-------------
b----12--------------------------------------12-10v~~--
g------------------------------------------------------
                    D
e-------10--9------10---9---------10h12---10-9----
b---12-----------12------------12-----------------
g-------------------------------------------------
             A               E               F#m
e--------10-9~~---10-12-10h12br^-10--9-9~~------------
b------------------------------------------12--10~~---
g-----------------------------------------------------
                D                               A
e-------10--9------10---9-----10---9------10--9v~~~-- 
b---12----------12--------12-----------12------------
g----------------------------------------------------
                                               (0:39) 

A                E
 Es tan difícil querer que a quien quiero
F#m                    D
  Solo se hace realidad en tus sueños
A              E
 Es increíble como aparece
F#m                          D
  Dentro en mi mente cuando no estoy durmiendo

                                                        e----------------------------
A5         E5            F#5              D5  ------>   B----------------------------
Siempre apareces como un ángel entre mis sueños         g----------------------------
A5         E5            F#5              D5            D--7---7s9---7---6-----------
Siempre apareces como un ángel entre mis sueños         A--5---5s7---5---4---9---7v~-  
                                                        E--------------------7---5v~-
(1:18)
A             E
 Ella sabe como consolarme 
F#m                      D
 cuando me siento mal y estoy desesperado 
A                   E
 yo la invito a una cita mas tarde 
F#m                  D
y me quedo pensando hasta la noche

A5         E5            F#5             D5
Siempre apareces como un ángel entre mis sueños
A5            E5           F#5                D5
Bella como el Arte simple como el aire que respiro
A5         E5            F#5              D5
Siempre apareces como un ángel entre mis sueños
A5            E5          F#5               D5
Bella como el Arte simple como el aire que respiro


(2:16)
    A5                            E5                       F#5    
e-------------------------7h9--7---7----8br--10br---8br^---7------------
b-----------10------10----------10--10br^--------------------10-7--10---
g--\9--9h11----9h11----------------------------------------------------- 
        D5                            A5
e------12-10-------------8br-8br-8br-8br--8-7---------
b---10---------12-10--12-----------------------10~~~--
g-----------------------------------------------------
          E5                           F#5                      D5
e--------------------------------9s10-9-10-10s12br~~---10p9-10-9-9v~~\--
b-----10--12--10-12br^--12-10-12----------------------------------------
g---11------------------------------------------------------------------
                                                                 (2:34) 
A                 E
 Al despertar con ansias espero
F#m                    D5
  Otra noche mas para poder mirarlaaaaaaaa
                                                     e----------------------------    
A5         E5            F#5              D5  ---->  B----------------------------
Siempre apareces como un ángel entre mis sueño       g----------------------------
A5            E5           F#5                D5     D--7---7s9---7---6-----------
Bella como el Arte simple como el aire que respiro   A--5---5s7---5---4--7---7v~-- 
A5         E5            F#5              D5         E-------------------9---5v~--
Siempre apareces como un ángel entre mis sueños
A5            E5           F#5                D5
Bella como el Arte simple como el aire que respiro


(3:23)
            A5            E5         F#5        D5             A5
e------------------------------------------------------------------------
b-------7-9-10br~---9-7--------------------------------------------------
g----(7)------------------7br~~----6-7-6br^~-----------------------------
D--------------------------------9-----------9-7-6br^~~~--6-7-9--7br^~~--

          E5                  F#5         D5
e-----------------------------------------------------
b-----------------------------------------------------
g-----------------------------------------------------
D---8h9~--10h11v~--10br11-12--11h12v~~~~--12h11v~~~~--

(3:42)
           A             E                 F#m              D
e------------------------9v~~--------7-9-10-9v~~~-----7-----------
b------7-9-10br~------9-7--------------------------------10-9v~~--
g---(7)-----------------------------------------------------------

                A                         E              F#m      D5
e----------7-------------7-9--7v~~~----7-7-9-10--9br^h10br^~~~~h9v~~~--7s5v~~---
b-----9-10---10v~~~---10--------------------------------------------------------
g-------------------------------------------------------------------------------

(4:02) tapping... (aun no estoy muy seguro de esto pero es algo asi)
  
   A5              E5                F#5                D5
e-12-10-9-7-5-7-5-7-5-7-5-7-9-7-5-7-5-7-5-7-12-10-9-7-5-7-5-7-5-7-5-7-9-7-5-7-5-7-5-7-5br~--
b-------------------------------------------------------------------------------------------

(4:11)
             A5              E5                 F#5              
e--------10--9~~--10-12-10h12br~--10-9-9v~~------------
b---/12--------------------------------------12--10~~--
g-------------------------------------------------------
                      D5           A5       E5        A5
e-------10--9------10---9---------10h12---10-9----15br~--17v~~~\---
b---12-----------12------------12----------------------------------
g------------------------------------------------------------------
                                                               (4:24)
fin

BUENO ESO ES TODO LA CANCION NO ES MUY DIFICIL ESPECIALMENTE SI LE ECHAN GANAS

EL "PALM MUTTING" SE TRATA DE PONER LA PALMA DE LA MANO DERECHA SOBRE LAS CUERDAS PERO DEJANDO QUE SUENEN 
COMO UN SONIDO SORDO CASI DESPUES DEL PUENTE INFERIOR SI NO TE SALE MANDAME UN E-MAIL

EL "TAPPING" ES UNA TECNICA DE PUNTEO QUE SE HACE MUY RAPIDO, ¡AH! SI LO TIENES COMPLETO MANDAMELO P0RFA 

YA NO PONGO EL GRAFICO DE LOS ARPEGIOS PUES ESO YA ES MUY FACIL

BUENO ESPERO QUE LES SEA DE SU AGRADO Y  ECHENLE GANAS Y PRACTIQUENLO
Y SI ENCUENTRAN ALGUN ERROR O SI QUIEREN MAS CANCIONES 
NO DUDEN EN ESCRIBIR A jpcondezo3@ ALLI PUEDEN HACER CUALQUIER PEDIDO 

UN SALUDO A TODA LA GENTE DE HUANCAVELICA-PERU PUES ES UN LUGAR MUY PEQUEÑO PERO DE UN CORAZON GRANDE
O SI NO TAMBIEN ANDATE Y DATE UNA VUELTA POR ICA QUE TAMBIEN, DESPUES DE TODO, TIENE SU ENCANTO
UN SALUDO TAMBIEN PARA KARLA, PATTY YULI Y LA GENTE DE SAN JOAQUIN
SI ERES UN FANATICO DE LOS VIAJES NO DUDES EN VENIR (MI CHERRY)


ENSERIO APOYEN AL TURISMO ESPECIALMENTE SI ERES PERUANO

¡¡¡¡¡¡¡¡¡¡Y QUE VIVA EL ROOOOOOOOOCK!!!!!!!!!
Suggest correction
Give kudos to tab author, rate the tab!
1 2 3 4 5
comments
print report bad tab
guest
You may want to rate the tab now too:
select rating
Wanna post a correction for this tab? Suggest correction