Oops, an error
Loading. Please wait.

Enamorado De Un Ángel Tab

version 2
version 2

Whole song

166 views 1 this week
no commentswrite comment
1 2 3 4 5
3 more votes to show rating
add to favorites
launch autoscroll
font size
0
reset
how to read this tab
guitar tuner
Autoscroll
slow
fast
+/-
esc
set tempo
stop
Help us to improve Ultimate-Guitar.com Take our survey!
×
Esta es una de las primeras canciones que 
aprendi a tocar, si alguien tambien quiere 
aprenderla que no dude de esta transcripcion 
que esta de la pu...
Esta tablatura a comparacion de las demas (que fue 
hecha por sordos)esta casi PERFECTA... 
Acordes:                
                      (Quintas)
   LA       MI  FA#m  RE      LA5  MI5  FAm5 RE5
1: |0|  |0|  |2|  |2|  1:  x    x    x    x
2: |2|      |0|  |2|  |3|  2:  x    x    x    x
3: |2|      |1|  |2|  |2|  3:  x    x    x   |7|
4: |2|      |2|  |4|  |0|  4: |7|  |2|  |4|  |7|
5: |0|      |2|  |4|  |0|  5: |7|  |2|  |4|  |5|
6: |0|      |0|  |2|  |0|  6: |5|  |0|  |2|   x 

(Estos son los Arpegios, se tocan como INTRO 
 y mientras oyes al vocalista,excepto en el 
 coro)

       LA           -          MI               
1:|----------------   -----------------      
2:|--------3+2-----   ----------------- 
3:|----2-------2---   -----1---2+1----- 
4:|--2---2-------2-   ---2---2-----2--- 
5:|0---------------   -2-------------2- 
6:|----------------   ----------------- 

       FA#m          -          RE 
1:|----------------   ----------------- 
2:|--------2-------   ---------3------- 
3:|----2-----2---2-   -----2-----2---2- 
4:|--4---4-----4---   ---0---0-----0--- 
5:|4---------------   -0---------------
6:|----------------   -----------------


NOTA: ---7+6--- esto quiere decir, arrastrar
la nota (el sonido) desde el traste 7 al 6
tocando la cuerda una sola vez.

1er Punteo:(mientras oyes el INTRO)
          
1:|---10-9-10+12-12-12+10-10-9-9-------
2:|12----------------------------12-10-

1:----10-9----10-9----12-10-9-10-9-
2:-12------12------12--------------

1:-10+12-12-12+10-9-9-------
2:--------------------12-10-

1:----10-9----10-9----10-9----10-9-|
2:-12------12------12------10------|

 LA              MI 
  Es tan difícil querer a quien quiero
 FA#m                 RE 
  solo se hace realidad en mis sueños
 LA              MI 
  es increible como apareces
 FA#m                      
  dentro de mi mente cuando 
  RE 
  no estoy durmiendo
 
(aqui tocas los mismos acordes pero en sus
 respectivas quintas)

  LA5           MI5         FAm5              
  siempre apareces como un ángel entre mis
  RE5
  sueños x2    
                  

 LA           MI 
  ella sabe como consolarme 
 FA#m                     RE 
  cuando me siento mal y estoy desesperado
 LA                  MI 
  yo la invito a una cita más tarde 
 FA#m                   RE 
  y me quedo pensando hasta la noche


  LA5           MI5         FAm5               
  siempre apareces como un ángel entre mis 
  RE5
  sueños   
  LA5            MI5          FAm5      
  bella como el arte simple como el aire 
         RE5
  que respiro x2


2do Punteo (después del coro):

1:|------------------------------------
2:|---------10----10-13+14-12-10-12-10-
3:|8+9-9-11----11----------------------

1:-------11+12-------------------
2:-13+14-------12-10-12-10----10-
3:-------------------------11----

1:----12-10-------------------------------
2:-10-------12-10-13+14-14-13+14-13+14-14-
3:----------------------------------------

1:---------------------------------
2:-12-10-12-10----10-12-10-13+14---
3:-------------11------------------

1:----------9-10-9-10-10+12-10-9-10-9-|
2:-12-10-12---------------------------|


 LA                MI             FA#m      
  al despertar con ansias espero otra noche
           RE 
  mas para poder mirarnos


  LA            MI          FA#m               
  siempre apareces como un ángel entre mis 
  RE 
  sueños    
  LA             MI           FA#m
  bella como el arte simple como el aire 
         RE 
  que respiro x2


3er Punteo (finalizando):

1:|---------------------------------------
2:|--7-9-10-9-7---------------------------
3:|7------------7---6-7-6-----------------
4:|---------------9-------9-7-6-6-7+9-9-7-

1:-----------------------
2:-----------------------
3:-----5+6-5+6-7-6+7-7+6-
4:-8+9-------------------

1:--------------9-7-9-10-9-7+5-5-4-4-5+7-7-
2:---7-9-10-9-7----------------------------
3:-7---------------------------------------

1:-5-5-7+9-9-7-7-9+10-10-9+10-10+9-7-5-----

                        ¿?

1:---10-9-10+12-12-12+10-10-9-9-------
2:12----------------------------12-10-

1:----10-9----10-9----12-10-9-12-17-|
2:-12------12------12---------------|


===========================================
(puedes tocar esto en los coros en vez de
 las quintas)

4:|---------------------3---3-0-------|    
5:|0-0-0------------------------4-2-0-|         
6:|-------0-0-0--2-2-2----------------|


como vez, falta un pedazo del punteo 
finalizando la canción(¿?), si te la sabes
mándamela, además si te sabes canciones de 
NIRVANA,AEROSMITH o OFFSPRING 
tambien envialas a: a_333@
(sugerencias,comentarios, mandame un e-mail)
-------------------------------------------
Suggest correction
Give kudos to tab author, rate the tab!
1 2 3 4 5
comments
print report bad tab
guest
You may want to rate the tab now too:
select rating
Wanna post a correction for this tab? Suggest correction