Oops, an error
Loading. Please wait.

Enamorado De Un Ángel Tab

version 4
version 4

Whole song

by Tremolo
55 views 1 this week
no commentswrite comment
1 2 3 4 5
3 more votes to show rating
add to favorites
×
Save as Personal and add changes to this tab that will be seen only by you. Learn more ›
×
You can save this tab as Personal to edit and correct it or add notes. All changes will be seen only by you. Learn more »
save as personal
new!
launch autoscroll
font size
0
reset
how to read this tab
guitar tuner
Autoscroll
slow
fast
+/-
esc
set tempo
stop
a toda la gente de atame les digo que saquen canciones
pero bien tamos recontra mal si si guen asi bueno aqui
les paso la cancion de enamorado de angel y que viva el
el rock tacneño.

todos saben que comiensan con la ,mi,fa'm,sim

para todos ahi les va el punteo


que facil y no lo sacan
e-----10-9--10--12--10-12--10--9--9--12--10
b--12----------------------------------------
g--------------------------------------------
d---------------------------------------------
a----------------------------------------------
e------------------------------------------------

e-------10--9------10---9---------10h12---10-9----
b---12-----------12------------12-----------------
g-------------------------------------------------
             A               E               F#m
e--------10-9~~---10-12-10h12br^-10--9-9~~------------
b------------------------------------------12--10~~---
g-----------------------------------------------------
                D                               A
e-------10--9------10---9-----10---9------10--9v~~~--
b---12----------12--------12-----------12------------
g----------------------------------------------------s el punteo de medio va haci


a qui les va el punteo de medio

(2:16)
    A5                            E5                       F#5
e-------------------------7h9--7---7----8br--10br---8br^---7------------
b-----------10------10----------10--10br^--------------------10-7--10---
g--\9--9h11----9h11-----------------------------------------------------
        D5                            A5
e------12-10-------------8br-8br-8br-8br--8-7---------
b---10---------12-10--12-----------------------10~~~--
g-----------------------------------------------------
          E5                           F#5                      D5
e--------------------------------9s10-9-10-10s12br~~---10p9-10-9-9v~~\--
b-----10--12--10-12br^--12-10-12----------------------------------------
g---11------------------------------------------------------------------
aui lesd vael punteo de final

(3:23)
            A5            E5         F#5        D5             A5
e------------------------------------------------------------------------
b-------7-9-10br~---9-7--------------------------------------------------
g----(7)------------------7br~~----6-7-6br^~-----------------------------
D--------------------------------9-----------9-7-6br^~~~--6-7-9--7br^~~--

          E5                  F#5         D5
e-----------------------------------------------------
b-----------------------------------------------------
g-----------------------------------------------------
D---8h9~--10h11v~--10br11-12--11h12v~~~~--12h11v~~~~--

(3:42)
           A             E                 F#m              D
e------------------------9v~~--------7-9-10-9v~~~-----7-----------
b------7-9-10br~------9-7--------------------------------10-9v~~--
g---(7)-----------------------------------------------------------

                A                         E              F#m      D5
e----------7-------------7-9--7v~~~----7-7-9-10--9br^h10br^~~~~h9v~~~--7s5v~~---
b-----9-10---10v~~~---10--------------------------------------------------------
g-------------------------------------------------------------------------------

[4:02] tapping... ( si estoy  seguro del tapimg
e---12--10--9--10--7-5--7--5--4-7--5--9--10--10---9--10--7--5--4--5.....
b-------------------------------------------------------------------------------------------

(4:11)
             A5              E5                 F#5
e--------10--9~~--10-12-10h12br~--10-9-9v~~------------
b---/12--------------------------------------12--10~~--
g-------------------------------------------------------
                      D5           A5       E5        A5
e-------10--9------10---9---------10h12---10-9----15br~--17v~~~\---
b---12-----------12------------12----------------------------------
g------------------------------------------------------------------
                           al condeso miren le gane diganle que se valla a la recunchput
de su madre
yo losaue tapimg-------respetos --y que sigua el punk tacneño
fin,.
Suggest correction
Give kudos to tab author, rate the tab!
1 2 3 4 5
comments
print report bad tab
guest
Wanna post a correction for this tab? Suggest correction