Oops, an error
Loading. Please wait.

Enamorado De Una Ángel Tab

64 views 1 this week
no commentswrite comment
1 2 3 4 5
3 more votes to show rating
add to favorites
launch autoscroll
font size
0
reset
how to read this tab
guitar tuner
Autoscroll
slow
fast
+/-
esc
set tempo
stop
Help us to improve Ultimate-Guitar.com Take our survey!
×
Soy Hector Chirinos y esta es la primera transcripcion
que publico, por eso ahi les va:


   LA                MIm
e----------------------------------------------
B----------3-2---------------0-----------------
G------2-------2---------1-----1---1-----------
D----2---2-------2-----2---2-----2-------------
A--0-----------------2-------------------------
E----------------------------------------------


   FA#m              RE
e----------------------------------------------
B----------2-----------------3-----------------
G------2-----2---2-------2-----2---2-----------
D----4---4-----4-------0---0-----0-------------
A--4-----------------0-------------------------
E----------------------------------------------

Se hace dos veces, luego entra la otra guitarra con:


e-----10-9---11-12-12-10-9-9-------------------
B--12-------------------------12-10-10---------
G----------------------------------------------
D----------------------------------------------
A----------------------------------------------
E----------------------------------------------


e-----10-9----10-9----12-10-9-10-9-------------
B--12------12------12--------------------------
G----------------------------------------------
D----------------------------------------------
A----------------------------------------------
E----------------------------------------------

De ahí se repite una vez mas.


Espero que les guste, y si no hagan su propia transcripcion 
y mandenmela a Faquiu77@ (pero no creo que la cambien
mucho)
Suggest correction
Give kudos to tab author, rate the tab!
1 2 3 4 5
comments
print report bad tab
guest
You may want to rate the tab now too:
select rating
Wanna post a correction for this tab? Suggest correction