Oops, an error
Loading. Please wait.

Enamorado De Una Ángel Bass

by Tremolo
101 views 1 this week
no commentswrite comment
1 2 3 4 5
3 more votes to show rating
add to favorites
launch autoscroll
font size
0
reset
guitar tuner
Autoscroll
slow
fast
+/-
esc
set tempo
stop
Bueno, etoy corrigiendo algunos detalles de esta tablatura que
hice ace mucho tiempo, espero ke sea facil de entender.

Cuando aparece el numero entre parentesis; por ejemplo la nota "sol"

E-----3(3)-----

No significa que 3 veces tocaras la misma nota, sino, ke dejen sonar
la cuerda de la nota sol.


INTRO:

G--|---------------------------------------------------|
D--|---------------------------------------------------|
A--|--------------7(7)---------9(9)--------5(5)--------|
E--|--5(5)---------------------------------------------|

G--|---------------------------------------------------|
D--|---------------------------------------------------|
A--|--------------7(7)---------9(9)------5(5)----5/1---|
E--|--5(5)---------------------------------------------|

Solo 1 Guitarra

G--|---------------------------------------------------|
D--|---------------------------------------------------|
A--|------------7-7---7------9-9---97----5-5----75-----| x2
E--|--5-5--67--------5-5----------5-----------5--------|

VERSO 1:

G--|---------------------------------------------------|
D--|---------------------------------------------------|
A--|------------7-7---7------9-9---97----5-5----75-----| x2
E--|--5-5--67--------5-5----------5-----------5--------|

CORO

G--|---------------------------------------------------|
D--|---------------------------------------------------|
A--|-----------------------------------5-5/7542--------| x2
E--|--5-5(5)---0-0(0)---2-2(2)--253--------------------|


VERSO2:

G--|---------------------------------------------------|
D--|---------------------------------------------------|
A--|------------7-7---7------9-9---97----5-5----75-----| x2
E--|--5-5--67--------5-5----------5-----------5--------|

CORO2:

G--|---------------------------------------------------|
D--|---------------------------------------------------|
A--|-----------------------------------5-5/7542--------| x4
E--|--5-5(5)---0-0(0)---2-2(2)--253--------------------|

Solo 2 Guitarra:

G--|---------------------------------------------------|
D--|---------------------------------------------------|
A--|-----------------------------------5-5/7542--------|
E--|--5-5(5)---0-0(0)---2-2(2)-------------------------|

G--|---------------------------------------------------|
D--|---------------------------------------------------|
A--|-----------------------------------5(5)------------|
E--|--5-5(5)---0-0(0)---2-2(2)-------------------------|


VERSO 3:

"Al despertar con asias espero...."
G--|---------------------------------------------------|
D--|---------------------------------------------------|
A--|------------7-7---7------9-9---97----55555555555---|
E--|--5-5--67--------5-5----------5--------------------|


CORO 3:

G--|---------------------------------------------------|
D--|---------------------------------------------------|
A--|-----------------------------------5-5/7542--------| x4
E--|--5-5(5)---0-0(0)---2-2(2)--253--------------------|

Solo 3 Guitarra

G--|---------------------------------------------------|
D--|---------------------------------------------------|
A--|-----------------------------------5-5/7542--------|
E--|--5-5(5)---0-0(0)---2-2(2)-------------------------|

G--|---------------------------------------------------|
D--|---------------------------------------------------|
A--|-----------------------------------5-(5)-----------|
E--|--5-5(5)---0-0(0)---2-2(2)-------------------------|

Outro: Como el intro

G--|---------------------------------------------------|
D--|---------------------------------------------------|
A--|------------7(7)---7---9(9)-----9----5(5)----------|
E--|--5(5)---5-----------------------------------------|

G--|---------------------------------------------------|
D--|---------------------------------------------------|
A--|------------7(7)---7---9999997755555555------------|
E--|--5(5)---5-----------------------------------------|

G--|---------------------------------------------------|
D--|---------------------------------------------------|
A--|-----------------------------------5-5/7542--------|
E--|--5-5(5)---0-0(0)---2-2(2)---253-------------------|

G--|---------------------------------------------------|
D--|---------------------------------------------------|
A--|-----------------------------------5---------------|
E--|--5-5(5)---0-0(0)---2-2(2)--253-------5--0---5(5)--|


Viva el rock PERUANO!! \m/
Suggest correction
Give kudos to tab author, rate the tab!
1 2 3 4 5
comments
print report bad tab
guest
Wanna post a correction for this tab? Suggest correction