Oops, an error
Loading. Please wait.

Tiranía Tab

7 views 1 this week
no commentswrite comment
1 2 3 4 5
3 more votes to show rating
add to favorites
launch autoscroll
font size
0
reset
how to read this tab
guitar tuner
Autoscroll
slow
fast
+/-
esc
set tempo
stop
Help us to improve Ultimate-Guitar.com Take our survey!
×
Intro
D#||----------------------||
A#||----------------------||
F#||----------------------||
C#||----------------------||
G#||----------2--2--2--2--||
D#||----------0--0--0--0--||

Riff 1
|--------------------------------||
|--------------------------------||
|*------------------------------*||
|*------------------------------*||
|--------------------------------||
|---0-0-2h3--2h3--2h3--2h3--2h3--||

Verso
|-------------------|--------------------|
|-------------------|--------------------|
|-------------------|--------------------|
|-------------------|------------3-------|
|--2----------------|--5---------1-------|
|--0----------------|--3-----------------|

|------------------------------------------|
|------------------------------------------|
|------------------------------------------|
|------------------------------------------|
|------------------------------------------|
|--0-0-0-0-0-0-0-0-0-0-0-0-0-0-0-0-0-0-0-0-|
 PM|--------------------------------------|

|------------------------------------------|
|------------------------------------------|
|------------------------------------------|
|------------------------------------------|
|----------------------1-1-1-1-1-1-1-1-1-1-|
|--3-3-3-3-3-3-3-3-3-3---------------------|
 PM|--------------------------------------|

Puente 1
                                     4x
|------------------------------------||
|------------------------------------||
|*----------------------------------*||
|*--7---7---7---7---5---5---5---5---*||
|-----5---5---5---5---3---3---3---3--||
|------------------------------------||
 PM|--------------------------------|

Puente 2
|--------------------|----------------------|
|--------------------|----------------------|
|--------------------|----------------------|
|-----------8--------|--7----8--7--6--------|
|--5--------6--------|--5----6--5--4--------|
|--3-----------------|----------------------|

|--------------------|--------------------|
|--------------------|--------------------|
|--------------------|--------------------|
|-----------8--------|--5--------7--------|
|--5--------6--------|--3--------5--------|
|--3-----------------|--------------------|

Estribillo 1
|---------------------------|--------------------------|
|---------------------------|--------------------------|
|*--------------------------|--------------2--2--2--2--|
|*--3--3--3--3--------------|--------------0--0--0--0--|
|---1--1--1--1--3--3--3--3--|--5--5--5--5--------------|
|---------------1--1--1--1--|--3--3--3--3--------------|

|--------------------------|---------------------------||
|--------------------------|---------------------------||
|--5--5--5--5--3--3--3--3--|--------------2--2--2--2--*||
|--3--3--3--3--1--1--1--1--|--5--5--5--5--0--0--0--0--*||
|--------------------------|--3--3--3--3---------------||
|--------------------------|---------------------------||

|--------------------------||
|--------------------------||
|--2--2--2--2--2--2--2--2--||
|--0--0--0--0--0--0--0--0--||
|--------------------------||
|--------------------------||

Estribillo 2
|-------------------------|-------------------------|
|-------------------------|-------------------------|
|-------------------------|-------------------------|
|-------------------------|-------------------------|
|--3----3--3--3--3--3--3--|--2----2--2--2--2--2--2--|
|--1----1--1--1--1--1--1--|--0----0--0--0--0--0--0--|
     PM|----------------|      PM|----------------|

|-------------------------|-------------------|
|-------------------------|-------------------|
|-------------------------|-------------------|
|-------------------------|-------------------|
|--3----3--3--3--3--3--3--|--2----------------|
|--1----1--1--1--1--1--1--|--0----------------|
     PM|----------------|

Riff 2

||---------------------------|
||---------------------------|
||*--------------------------|
||*----------7---------7-----|
||---5---5-------5---5---5---|
||---------------------------|
 PM|----------------------|

                           4x
|---------------------------||---------------------------|
|---------------------------||---------------------------|
|--------------------------*||*--------------------------|
|--------8-----------5-----*||*--------------------------|
|--6---6---6---3---3---3----||---------7-----------7-----|
|---------------------------||---5---5---5---5---5---5---|
PM|---------------------|    PM|----------------------|

|---------------------------||--------------------|
|---------------------------||--------------------|
|--------------------------*||--------------------|
|--------------------------*||--------------------|
|--------8-----------5------||--7--------5--------|
|--6---6---6---3---3---3----||--5--------3--------|
PM|---------------------|

Intro
Riff 1 X 2

Verso
La maldad cambia de caras,
para que no cambie nada.
Inmoral condecorada
sobre ataúdes de pobres

Puente 1
La democracia. Confusa ilusion
La mayoria no sabe que es.

Puente 2
La farsa mas estupenda y brutal
Que se ha montado en este lugar

Estribillo 1
Voy dia a dia peleando a la vida
Dando lo maximo que hay en mi
Ellos saquean y nos contaminan
Junto a gobiernos traidores de aqui

Estribillo 2
Historia repetida no cierran las heridas
Se mueren los tiranos, pero no la tirania.

Riff 1
Verso
Basta de sueños foraneos
Gritemos contra su lacra
Detengamos la hemorragia
Que a nuestra tierra arrasa

Puente 1
Un puño en alto y sudaka furor
Vuela por siempre el condor del sur

Puente 2
Inhumana violencia para conquistar
Arrasan con la vida en nombre de la paz

Estribillo 1
Voy dia a dia peleando a la vida
Dando lo maximo que hay en mi.
Nosotros vamos por nuestra revancha
La resistencia y rendirse jamas

Estribillo 2
Historia repetida no cierran la heridas
Se mueren los tiranos, pero no la tirania.

Durante el solo riff 2.
Suggest correction
Give kudos to tab author, rate the tab!
1 2 3 4 5
comments
print report bad tab
guest
You may want to rate the tab now too:
select rating
Wanna post a correction for this tab? Suggest correction