Oops, an error
Loading. Please wait.

Agua Fría Chords

version 1
version 1

Whole song

23 views 1 this week
no commentswrite comment
1 2 3 4 5
3 more votes to show rating
add to favorites
launch autoscroll
font size
0
reset
transpose
0
reset
simplify chords
display chords
guitar tuner
Autoscroll
slow
fast
+/-
esc
set tempo
stop
Help us to improve Ultimate-Guitar.com Take our survey!
×
Por Josué Manuel Ramírez Aldama
Dudas y comentarios en : josue_mramrez_aldama@

Esta es una grandiosa canción del mejor grupo chileno de rock de todos los tiempos Los Tres

INTRO

D/B  E

(0:08)
e ------------------------------
b ---2---2---2--2---------------
g ---2b--2b--2--2b--3--2--------
D ------------------------0-----
A ------------------------------
E ------------------------------

VERSO
(0:15)

D/B                E
Amaba a una mujer y no amaba a otra
CM7                  C
El dolor quema la sangre y seca el alma
D/B             E
Amor sincero y cartas de rubí
CM7             C                      D
Hoy duermen siesta las voces que escribí

D            E D              E
Hemos de enterrar toda esta belleza
D             E  D                   Em
El antiguo fulgurar que habían en su cabeza


INTERLUDE 1
-----------
(1:02)
C              Am            Dm      G
Me hizo recordar las estrellas
C           Am                    Dm    E
Me obligó a quemar las fotos de ella
D/B            D
Hoy solo eres como el agua fría
         CM7
No hay calor
          C
No hay Sangre
         D
No hay vida

(1:26)

e ------------------------------
b ---2---2---2--2---------------
g ---2b--2b--2--2b--3--2--------
D ------------------------0-----
A ------------------------------
E ------------------------------

(1:32)

SOLO

(2:03)

CORO
----

D               E D              E
Yo voy a enterrar toda esta maleza
D               E D                      Em
No quiero que viva ni siquiera en mi cabeza
D               E D              E
Yo voy a enterrar toda esta maleza
D               E D                       Em
No quiero que viva ni siquiera en mi maleta


INTERLUDE 2
-----------
C                      Am            Dm   G
Ya no hay joyas ni perlas y no hay luz
C                      Am      Dm   G
El Sol vive en mi pecho y es Azul.
C                     Am      Dm   G
El Sol vive en mi pecho y es Azul.
C                     Am      Dm   G
El Sol vive en mi pecho y es Azul.

(2:54)

e -1/3---3--5/7--7/8--5----
b -----5-------------------
g -------------------------
D -------------------------
A -------------------------
E -------------------------

e -1h3---3/5----3h5--5/7--
b ------------------------
g ------------------------
D ------------------------
A ------------------------
E ------------------------

C                      Am      Dm   G
El Sol vive en mi pecho y es Azul.
C                      Am      Dm   G
El Sol vive en mi pecho y es Azul.

     C                Am
e -1/3---3--5/7--7/8--5----
b -----5-------------------
g -------------------------
D -------------------------
A -------------------------
E -------------------------
     Dm                G
e -1h3---3/5----3h5--5/7--
b ------------------------
g ------------------------
D ------------------------
A ------------------------
E ------------------------


Este es mi primer tab...se lo quiero dedicar a mis hermanos Alberto y Miriam y a mi novia Erika
Suggest correction
Give kudos to tab author, rate the tab!
1 2 3 4 5
comments
print report bad tab
guest
You may want to rate the tab now too:
select rating
Wanna post a correction for this tab? Suggest correction