Oops, an error
Loading. Please wait.

Déjate Caer Tab

version 1
version 1

Whole song

Interactive

184 views 6 this week
no commentswrite comment
1 2 3 4 5
3 more votes to show rating
add to favorites
×
Save as Personal and add changes to this tab that will be seen only by you. Learn more ›
×
You can save this tab as Personal to edit and correct it or add notes. All changes will be seen only by you. Learn more »
save as personal
new!
launch autoscroll
font size
0
reset
how to read this tab
guitar tuner
Autoscroll
slow
fast
+/-
esc
set tempo
stop
los tres(unplugged):dejate caer
transcription: Boris Chilan corregido por gozub
Solo:
e:-10-10-10-10-10-10-9--10-12-12-12-12
B:-12-12-12-12-12-12-11-12-14---------
G:------------------------------------


e:-10-10-10-10-10-10-12-7/9-9--9--9--10
B:-12-12-12-12-12-12-14-----10-10-10-12
G:-------------------------------------

e:-7-7-7-7-7-7-6-7/9--9---6-7-9--10-9--7
B:-8-8-8-8-8-8-7-8-11-11--7-8-10-12-10-8
G:--------------------------------------

e:-12-12-14-15-14-12--10-10-9--9--7-7-5-5
B:-13-13-13-13-13-13--12-12-10-10-9-9-7-7
G:---------------------------------------

e:-3-3-2-2-0-0-0
B:-5-5-3-3-2-2-0-
G:----------------
Suggest correction
Give kudos to tab author, rate the tab!
1 2 3 4 5
comments
print report bad tab
guest
Wanna post a correction for this tab? Suggest correction