Oops, an error
Loading. Please wait.

Don José Tab

73 views 3 this week
no commentswrite comment
1 2 3 4 5
3 more votes to show rating
add to favorites
launch autoscroll
font size
0
reset
how to read this tab
guitar tuner
×
Best way to learn
"Don José"
Autoscroll
slow
fast
+/-
esc
set tempo
stop
INTRODUCCIÓN:

   B7
E-7-9--10-11--9-7----11--9-7----11-11-11-11-11-
B-9-10-11-12-10-7----12-10-7----12-12-12-12-12-
G----------------------------------------------
D----------------------------------------------
A----------------------------------------------
E----------------------------------------------

                 E7
E-9-7---11-9--7--12-12-12-12-------
B-10-7--12-10-7--12-12-12-12-9-8-9-
G----------------------------9-8-9-
D----------------------------------
A----------------------------------
E----------------------------------

  B7
E-7-9--10-11--9-7----11--9-7----11-11-11-11-11-
B-9-10-11-12-10-7----12-10-7----12-12-12-12-12-
G----------------------------------------------
D----------------------------------------------
A----------------------------------------------
E----------------------------------------------

                 E7
E-9-7---11-9--7--12-12-12-12-------
B-10-7--12-10-7--12-12-12-12-9-8-9-
G----------------------------9-8-9-
D----------------------------------
A----------------------------------
E----------------------------------

B7

VERSO:

E
Chaqué de la colonia

Polaina, Tongo y Bastón
B7
Es toda la elegancia
                   E
Que tiene nuestro Barón
              E7
Teñido con peluca
                   A
Un cuello descomunal
Am               E
Se lo pasa todo el día
       B7           E
Paseando por el portal

CORO:
    A
Don José
                E7   E7/A
Es química completa
E7                               A
Alarmado tiene a todo el vecindario
      A7
Don José
                 D
Se recoge a las tres
Dm              A             F#
Al pasar se asoman las chiquillas
      B7        MI         A
Cuando desfila por el portal


B7-C7-B7-C7-B7-C7


Se repite lo anterior una vez más, después viene el solo
y termina con el coro

FINAL:

Álvaro Henríquez:

E-0-0-0---0-0-0--0-0-0--0-0-----------------0-
B-5-5-5---4-4-4--3-3-3--2-0-2-0-2-----------2-
G---------------------------------2-0-2-----2-
D-------------------------------------------2-
A-------------------------------------------0-
E---------------------------------------------

Ángel Parra:

E-0-0-0---0-0-0--0-0-0--0-0-----------------3-
B-5-5-5---7-7-7--5-5-5--3-2-2-0-2-----------2-
G-------------------------------------------2-
D-------------------------------------------2-
A-------------------------------------------0-
E---------------------------------------------


Acordes:

A: 002220 o 577655
A7: 575685
Am: 002210
B7: 021202
C7: 032303
D: x57775
Dm: x57765
F#: 244322
E: 022100
E7: 022130 o 076700
E7/A: 07x9910

Dedicado a todos los fans de los tr3s, saludos desde
la cuna del rock chileno.
Suggest correction
Give kudos to tab author, rate the tab!
1 2 3 4 5
comments
print report bad tab
guest
You may want to rate the tab now too:
select rating
Wanna post a correction for this tab? Suggest correction