Oops, an error
Loading. Please wait.

Tu Cariño Se Me Va Bass Tab

version 1
version 1

Whole song

158 views 6 this week
no commentswrite comment
1 2 3 4 5
3 more votes to show rating
add to favorites
launch autoscroll
font size
0
reset
guitar tuner
×
Best way to learn
"Tu Cariño Se Me Va"
Autoscroll
slow
fast
+/-
esc
set tempo
stop
Riff Principal
G:-----------------------------------------------------------|
D:-----------------------------------------------------------|
A:--3-3-3----------------------------------------------------|
E:-----------4-4-4--4-4--4-3-1-1-1-1-1-1-1-1-1-1-3-3-3-3-3-3-|

Parte Lenta
G:-----------------------------------------------------------------------------|
D:-----------------------------------------------------------------------------|
A:------------------------------------------------------------1-1-1-3-3-3-3-3-3|
E:-1-1-1-1-1-1-0-3-3-3-3-3-3-0-1-1-1-1-1-1-0-3-3-3-3-3-3-4-4-4-----------------|

Coro:
G:-----------------------------------------------------------------------------------|
D:-----------------------------------------------------------------------------------|
A:------------------------------------------5-5-5-5-5-5-5-5-5-5-3-3-3-3-3-3-3-3-3-3--|
E:-1-1-1-1-1-1-1-1-1-1-5-5-5-5-5-5-5-5-5-5-5-----------------------------------------|


|-------------------------------------|
|CUALQUIER DUDA O CONSULTA ESCRIBIR A |
|-   celisrock69@        |  
|                                     |
|-         |
|-------------------------------------|
Suggest correction
Give kudos to tab author, rate the tab!
1 2 3 4 5
comments
print report bad tab
guest
You may want to rate the tab now too:
select rating
Wanna post a correction for this tab? Suggest correction