Oops, an error
Loading. Please wait.

Tu Cariño Se Me Va Bass Tab

version 2
version 2

Whole song

37 views 1 this week
no commentswrite comment
1 2 3 4 5
3 more votes to show rating
add to favorites
launch autoscroll
font size
0
reset
guitar tuner
Autoscroll
slow
fast
+/-
esc
set tempo
stop
Help us to improve Ultimate-Guitar.com Take our survey!
×
Hola, este es mi primer tab, pero estoy seguro de que esta bueno,
porque fui a ver a los 3 en viña el 29/7, y me fijé en lo que iso
titae.

Bueno aqui está:

Riff Principal
G:--------------------------------------------------------
D:------------------------------------0--------0----------
A:--3-3-3/1----------------------------7-7-9-9--7-7-9-9-0
E:-----------4-4-4/1--4-4/1--4-3-1------------------------

Parte Lenta
G:-----------------------------------------------
D:-----------------------------------------------
A:-----------------------------------------------
E:1-1-1-0-1-1-1-0-3-3-3-0-3-3-3-0-1-1-1-0-1-1-1

G:----------------------------------------|
D:----------------------------------------|
A:-----------------------1-1-1-3-3-3-3-3-3|
E:-0-3-3-3-0-3-3-3-4-4-4------------------|

Coro:
G:------------------------------------------
D:------------------------------------------
A:------------------------------------------
E:-1-1-1-1-1-1-1-1-1-1-5-5-5-5-5-5-5-5-5-5-5

G:-----------------------------------------
D:-----------------------------------------
A:5-5-5-5-5-5-5-5-5-5-3-3-3-3-3-3-3-3-3-3
E:-----------------------------------------


Final:

      tu cariño se me  vaaa        se me
G:---------------------------------------
D:---------------------------------------
A:3-3-3-3-3-3-3-3-3-3-3------------------
E:---------------------4-4-4-4-4-4-4-4-3-

  va como el agua entre los dedooos
G:-----------------------------------------|
D:-----------------------------------------|
A:-----------------------------------------|
E:1-1-1-1-1-1-1-1-1-1-3-3-3-3-3/12-12-12-12|x2

G:-----------------------|
D:-----------------------|  (termina con 0 en la 4ta cuerda)
A:------------------3-3-3|
E:3-3-3-3-3-3-3-3-3------|


Bueno eso sería po...ojalá que les guste.
Después les mando más tabs.
CHAU.
Suggest correction
Give kudos to tab author, rate the tab!
1 2 3 4 5
comments
print report bad tab
guest
You may want to rate the tab now too:
select rating
Wanna post a correction for this tab? Suggest correction