Oops, an error
Loading. Please wait.

La Malagueña Tab

1,610 views 9 this week
no commentswrite comment
1 2 3 4 5
3 more votes to show rating
add to favorites
launch autoscroll
font size
0
reset
how to read this tab
guitar tuner
Autoscroll
slow
fast
+/-
esc
set tempo
stop
Help us to improve Ultimate-Guitar.com Take our survey!
×
LA MALAGUEÑA  CON  LOS TRES ASES


BUENO TELOS PASO ASI Y YA ES QUE TU ESCUCHES LA CANCIÓN Y SOLO VA A SALIR EL REQUINTO 

  \                                       
   1|---6------9-----9-------8-----6----8----------
 ) 2|-----7------------10-----9-----7----9---------
   3|--------8-------------------------------------
   4|----------------------------------------------
 ) 5|----------------------------------------------
   6|----------------------------------------------
__/


  \                                       
   1|---7---7------10------9------8----9-----------
 ) 2|-----8---8-------11-----10-----9-----10-------
   3|----------------------------------------------
   4|----------------------------------------------
 ) 5|----------------------------------------------
   6|----------------------------------------------
__/


  \                                       
   1|---9---9-----13-----9---9-----13---9----9-----
 ) 2|----10---10----14-----10--10----14---10---10--
   3|----------------------------------------------
   4|----------------------------------------------
 ) 5|----------------------------------------------
   6|----------------------------------------------
__/


  \                                       
   1|---13-----12------11------12------------------
 ) 2|-----14------13------12------13---------------
   3|----------------------------------------------
   4|----------------------------------------------
 ) 5|----------------------------------------------
   6|----------------------------------------------
__/


  \                                       
   1|----10----8---9------12--12---12---10?9?8-----
 ) 2|----------------------------------------------
   3|----------------------------------------------
   4|----------------------------------------------
 ) 5|----------------------------------------------
   6|----------------------------------------------
__/


  \                                       
   1|---10--9--8---8--9--10---12--12--12---12-10-9-
 ) 2|----------------------------------------------
   3|----------------------------------------------
   4|----------------------------------------------
 ) 5|----------------------------------------------
   6|----------------------------------------------
__/


  \                                       
   1|--8-10-9-8--6-6-6-----------------------------
 ) 2|----------------------------------------------
   3|----------------------------------------------
   4|----------------------------------------------
 ) 5|----------------------------------------------
   6|----------------------------------------------


BUENO ESTA ES LA PRIMERA PARTE DEL EL REQUINTO Y ME GUSTARIA INTERCAMBIAR REQUINTOS  

MI MAIL ES ANGELLO_ANDREU@
Suggest correction
Give kudos to tab author, rate the tab!
1 2 3 4 5
comments
print report bad tab
guest
You may want to rate the tab now too:
select rating
Wanna post a correction for this tab? Suggest correction