Oops, an error
Loading. Please wait.

Engañada Tab

26 views 1 this week
no commentswrite comment
1 2 3 4 5
3 more votes to show rating
add to favorites
launch autoscroll
font size
0
reset
how to read this tab
guitar tuner
Autoscroll
slow
fast
+/-
esc
set tempo
stop
Help us to improve Ultimate-Guitar.com Take our survey!
×
|------------0-----0-------0---0----------------------|
|--0----1----3s5---3s5-----3s5-3s5-----5----3----1----|
|-1----2-------------------------------5----4----2----|
|-----------------------------------------------------|
|-----------------------------------------------------|
|-----------------------------------------------------|
              
|-----------------------------------------------------|
|-0--0--0--1--1--5--5--3--5--5-----5--5---3s5---3---2-|
|-1--1--1--2--2--5--5--4--5--5-----5--5---4s5---4---1-|
|-----------------------------------------------------|
|-----------------------------------------------------|
|-----------------------------------------------------|
              
|-0--0--0--1--1-----5--5----4---5--5---5--5----3s5----|
|-------------------2--2----1---2--2---6--6----5s6----|
|-------------------2--2----1---2--2------------------|
|-----------------------------------------------------|
|-----------------------------------------------------|
|-----------------------------------------------------|

|--3----1-----------0-----1-----3-----1-----1h3-----0-|
|--5----3-----3---------------------------------------|
|-----------------------------------------------------|
|-----------------------------------------------------|
|-----------------------------------------------------|
|-----------------------------------------------------|

|--------1-----0--------------------------------------|
|--3-----------------3-----1-----0--------------------|
|--------------------------------------2----1---------|
|-----------------------------------------------3---2-|
|-----------------------------------------------------|
|-----------------------------------------------------|

|-----------------------------------------------------|
|----------------------------------1------------------|
|----------------------------------2------------------|
|-0---------------------------2-----------------------|
|------3----2-----0------3----------------------------|
|-----------------------------------------------------|
Suggest correction
Give kudos to tab author, rate the tab!
1 2 3 4 5
comments
print report bad tab
guest
You may want to rate the tab now too:
select rating
Wanna post a correction for this tab? Suggest correction