Oops, an error
Loading. Please wait.

Quien Será Tab

44 views 1 this week
no commentswrite comment
1 2 3 4 5
3 more votes to show rating
add to favorites
launch autoscroll
font size
0
reset
how to read this tab
guitar tuner
Autoscroll
slow
fast
+/-
esc
set tempo
stop
Help us to improve Ultimate-Guitar.com Take our survey!
×
Este es mi primer aporte.

En tono Gm (si es requinto en Dm,tono original de Los Panchos con J Albino)

Dedico esta tablatura a la mujer que amo, Cecilia

Afinación : A E C G D A    ritmo de bolero-mambo

A|--------------------------------|----0-0-------------------------|
E|--------------------------------|--2-----3-3---------------------|
C|--2-2-2-2-2-2-3---0-3-2-----2-0-|2-------------2-2-2-3---0-3-2---|
G|----------------2-------0-3-----|----------------------2-------0-|
D|--------------------------------|--------------------------------|
A|--------------------------------|--------------------------------|


A|----------0---------------------|
E|--------2---3-------------------|
C|--2-0-2-------------------------|
G|3-------------------------------|
D|--------------------------------|
A|--------------------------------|
Suggest correction
Give kudos to tab author, rate the tab!
1 2 3 4 5
comments
print report bad tab
guest
You may want to rate the tab now too:
select rating
Wanna post a correction for this tab? Suggest correction