Oops, an error
Loading. Please wait.

Reina Mía Tab

26 views 1 this week
no commentswrite comment
1 2 3 4 5
3 more votes to show rating
add to favorites
launch autoscroll
font size
0
reset
how to read this tab
guitar tuner
×
Best way to learn
"Reina Mía"
Autoscroll
slow
fast
+/-
esc
set tempo
stop
Esta cancion es muy bonita y padre para llevar serenata,y se pude
improvisar de muchas maneras nada mas hay que tener imaginación y
este requinto es sencillo y no tiene errores.

  Cuando vean este simbolo (*a) se hace un trino.
  (*) y este se toca cuerdas a la par hacia abajo para cerrar el acorde.


Itroduccion:

6----------------------------------------------------------------------
5----------------------------------------------------------------------
4----------------------------------------------------------------------
3--4---5-4-3-4--------------------------4-----5-----4------------------
2---*a3-----------------------------5--5--5--5--5--5-------------------
1--------------*a7-6-7-6-5-6-5-3-5-3--3-----3-----3--------------------


6----------------------------------------------------------------------
5-------------------------------4--------------------------------------
4-----------------5-----------5----------------------------------------
3-----3-----2---------9---12----4--------------------------------------
2--5-5--5--5--5--5---8----12--5----------------------------------------
1---3----3------3---7-----12-------------------------------------------


Este es el interludio:


6----------------------------------------------------------------------
5----------------------------------------------------------------------
4---------------------------------4------------------------------------
3-----------------------------------2----------------------------------
2---------------------------------4------------------------------------
1--7-6-7-10-10-10-9-8-10-8-10-8-7---2--1-2-7-7-7-6-5-------------------


Este es la parte de las cuerdas a la par.


6----------------------------------------------------------------------
5----------------------------------------------------------------------
4----------------------------------------------------------------------
3----4-----4-----4----3-----3-----3-----2-----2------2-----------------
2------5-----5-----5----5-----5-----5-----4-----4------4---------------
1--3-----3-----3----------6-----6-----6-----5-----5------5-------------


6--------------------------------------
5---------------------------4----------
4------------------------5-------------
3-----4-----0---------------4----------
2-----------0-----8--12--5-------------
1-------7---0---7----12----------------

Esta cación se la dedico a una hermosa chava que la veo todos los dias
en donde ayudo a mi mamá y esa persona se llama MARGARITA me encantas
amor mio.

 Saludos a mi sobrinos baruc sin este wey no hubiera ver tocado la
 guitarra y a todos los guitarristas de mendoza,ver. que ahi radico.

 Si tienen dudas aqui les dejo mi correo o intercambio de acordes.
 de los tres reyes,de los dandys,los panchos o el trio las sombras.

 SI LA CONOCEN A MI HERMOSA CHAVA SE APELLIDA AGUILA CID Y DIGANLE
 QUE MEGUSTA MUCHO.
  K2_607@
Suggest correction
Give kudos to tab author, rate the tab!
1 2 3 4 5
comments
print report bad tab
guest
You may want to rate the tab now too:
select rating
Wanna post a correction for this tab? Suggest correction