Oops, an error
Loading. Please wait.

Malagueña Tab

1,104 views 1 this week
no commentswrite comment
1 2 3 4 5
2 more votes to show rating
add to favorites
×
Save as Personal and add changes to this tab that will be seen only by you. Learn more ›
×
You can save this tab as Personal to edit and correct it or add notes. All changes will be seen only by you. Learn more »
save as personal
new!
launch autoscroll
font size
0
reset
how to read this tab
guitar tuner
Autoscroll
slow
fast
+/-
esc
set tempo
stop
Esta canción es muy bella dedicada a todas las mujeres del mundo de
Javier L. Diego J. Deniss C. Stalin C. Alvaro G. Alvaro B. Luis Ch.
Y Wilson Carpio. De la U. De Cuenca-Ecuador disfrútenla.

A--------------0----------------0----1P0------------------------------
E-----2-----2--2H5-----2-----2--2H5-------3--2--3H5--3--2--3----------
C--2-----2----------2-----2-------------------------------------------
G---------------------------------------------------------------------
D---------------------------------------------------------------------
A---------------------------------------------------------------------

A--------------3--------------3--5P3----------------------------------
E-----5-----5--------5-----5----------6--5--6H8--6--5--6---------7----
C--5-----5--------5-----5-------------------------------------7-------
G---------------------------------------------------------------------
D---------------------------------------------------------------------
A---------------------------------------------------------------------

A--------5--------------5--6P5----------------------------6P5-----5---
E-----7--------7-----7----------8--7--8H10--8--7--8------------8------
C--7--------7-----7---------------------------------------------------
G---------------------------------------------------------------------
D---------------------------------------------------------------------
A---------------------------------------------------------------------

A--6--0--9--10--0--9--10--5-----------5--0--9--10--0--9--10-----------
E----------------------------8--6--8-------------------------8--6--5--
C---------------------------------------------------------------------
G---------------------------------------------------------------------
D---------------------------------------------------------------------
A---------------------------------------------------------------------

A--------------------5----------------------6P5-----5--6--0--9--10----
E-----------5--6--8-----6----6--6--5--6--7-------8--------------------
C--7--6--7------------------------------------------------------------
G---------------------------------------------------------------------
D---------------------------------------------------------------------
A---------------------------------------------------------------------

A--0--9--10--5-----------5--0--9--10--0--9--10------------------------
E---------------8--6--8-------------------------5--6--8--6--5---------
C--------------------------------------------------------------7--6---
G---------------------------------------------------------------------
D---------------------------------------------------------------------
A---------------------------------------------------------------------

A--------------------13--12--10---------------------------------------
E--------------------------------13--11H12P11--10--11--10-----11--10--
C----------------------------------------------------------9----------
G--8--7--5------------------------------------------------------------
D-----------8--7--5---------------------------------------------------
A---------------------------------------------------------------------
A-----------------------------------------
E--8--8--8--8--6--6--6--6--5--5--5--5-----
C--------------------------------------7--
G-----------------------------------------
D-----------------------------------------
A-----------------------------------------


El segundo estribillo es así.


A--------------0--------------0--5--3--3--1------0--1--0--1--3--0--1--
E--2--3--2--3-----2--3--2--3------------------------------------------
C---------------------------------------------------------------------
G---------------------------------------------------------------------
D---------------------------------------------------------------------
A---------------------------------------------------------------------

A--0--1--3--8--6--6--5------10--10--10--10--6--6--6--6----------------
E-------------------------------------------------------8--8--8--8----
C---------------------------------------------------------------------
G---------------------------------------------------------------------
D---------------------------------------------------------------------
A---------------------------------------------------------------------

A--8--8--8--8--5--5--5--5--------------6--6--6--6--3--3--3--3---------
E--------------------------6--6--6--6--------------------------5--5---
C---------------------------------------------------------------------
G---------------------------------------------------------------------
D---------------------------------------------------------------------
A---------------------------------------------------------------------

A--------5--5--5--5--1--1--1--1--------------3--3--3--3--0--0--0--0---
E--5--5--------------------------3--3--3--3---------------------------
C---------------------------------------------------------------------
G---------------------------------------------------------------------
D---------------------------------------------------------------------
A---------------------------------------------------------------------

A--------------1--1--1--1--------------------------0--0--0--0---------
E--2--2--2--2--------------3--3--3--3--------------------------2--2---
C--------------------------------------2--2--2--2---------------------
G---------------------------------------------------------------------
D---------------------------------------------------------------------
A---------------------------------------------------------------------

A----------------------------6P5-----5--6--0--9--10--0--9--10--5------
E--2--2--------------2------------8-------------------------------8---
C--------2--2--2--2---------------------------------------------------
G---------------------------------------------------------------------
D---------------------------------------------------------------------
A---------------------------------------------------------------------


A--------5--0--9--10--0--9--10-----------------------------5----------
E--6--8-------------------------8--6--5-----------5--6--8-----6----6--
C----------------------------------------7--6--7----------------------
G---------------------------------------------------------------------
D---------------------------------------------------------------------
A---------------------------------------------------------------------

A--------------6P5-----5--6--0--9--10--0--9--10--5-----------5--0--9--
E--6--5--6--7-------8-------------------------------8--6--8-----------
C---------------------------------------------------------------------
G---------------------------------------------------------------------
D---------------------------------------------------------------------
A---------------------------------------------------------------------

A--10--0--9--10-----------------------------------------13--12--10----
E----------------5--6--8--6--5----------------------------------------
C-------------------------------7--6----------------------------------
G-------------------------------------8--7--5-------------------------
D----------------------------------------------8--7--5----------------
A---------------------------------------------------------------------

A---------------------------------------------------------------------
E--13--11H12P11--10--11--10-----11--10--8--8--8--8--6--6--6--6--5--5--
C----------------------------9----------------------------------------
G---------------------------------------------------------------------
D---------------------------------------------------------------------
A---------------------------------------------------------------------

A-----------
E--5--5-----
C--------7--
G-----------
D-----------
A-----------


Cualquier duda o petición de alguna canción escríbanme a willicar696@
Suggest correction
Give kudos to tab author, rate the tab!
1 2 3 4 5
comments
print report bad tab
guest
Wanna post a correction for this tab? Suggest correction